» » »

Madball, 100% Tabs (ver.1)

Artists:  A B C D E F G H I J K L M N O P Q R S T U V W X Y Z # 

100% Tabs (ver.1)

Madball Tabs
 Rating:
4/5 (4 votes)
100% lessons Tabs too difficult? Try these video lessons and learn fast
1
                

INTRO
e|--------------------------|
b|--------------------------|
g|--------------------------|
D|---0----0----0---66666666-|
A|-1-0--2-0--1-0---66666666-|
D|-1-0--2-0--1-0---66666666-|
PM .    .    .



VERSE x2 
e|----------------------------------------------------------------------|
b|----------------------------------------------------------------------|
g|----------------------------------------------------------------------|
D|---00---00---00---00---00---00---00---00---55556--55553--55556--55553-|
A|-1-00-2-00-1-00-2-00-1-00-2-00-1-00-2-00--555556-555553-555556-555553-|
D|-1-00-2-00-1-00-2-00-1-00-2-00-1-00-2-00--555556-555553-555556-555553-|
PM .    .    .    .    .    .    .    .     .      .      .      .


RIT
e|----------------------------------------------------------------------------|
b|----------------------------------------------------------------------------|
g|----------------------------------------------------------------------------|
D|---00---00---00-------00-------00-------00---00---00-------00-------00------|
A|-1-00-2-00-1-00-22221-00-11111-00-22221-00-2-00-1-00-22221-00-11111-00-2222-|
D|-1-00-2-00-1-00-22221-00-11111-00-22221-00-2-00-1-00-22221-00-11111-00-2222-|
PM .    .    .    .....    .....    .....    .    .    .....    .....    ....


VERSE/BRIDGE
e|-------------------------------------------------------------------|
b|-------------------------------------------------------------------|
g|-------------------------------------------------------------------|
D|--555556--555553--555556--555553--555536--555536--555536-588888888-|
A|-5555556-5555553-5555556-5555553-5555536-5555536-5555536-588888888-|
D|-5555556-5555553-5555556-5555553-5555536-5555536-5555536-588888888-|
PM .       .       .       .       .       .       .       .


RIT/OUTRO
e|------------------------------------------------------------------------------------------
b|------------------------------------------------------------------------------------------
g|------------------------------------------------------------------------------------------
D|---00---00---00-------00-------00-------00---00---00-------00-------00-------00---00---00-
A|-1-00-2-00-1-00-22221-00-11111-00-22221-00-2-00-1-00-22221-00-11111-00-22221-00-2-00-1-00-
D|-1-00-2-00-1-00-22221-00-11111-00-22221-00-2-00-1-00-22221-00-11111-00-22221-00-2-00-1-00-
PM .    .    .    .....    .....    .....    .    .    .....    .....    .....    .    .      


-------------------------------------------------------------------------------------|
-------------------------------------------------------------------------------------|
-------------------------------------------------------------------------------------|
-------00-------00-------00---00---00-------00-------00-------0----0----0--666666660-|
-22221-00-11111-00-22221-00-2-00-1-00-22221-00-11111-00-22221-0--2-0--1-0--666666660-|
-22221-00-11111-00-22221-00-2-00-1-00-22221-00-11111-00-22221-0--2-0--1-0--666666660-|
 .....    .....    .....    .    .    .....    .....    .....    .    . 


PM= Palm Mute



23/11/2006
            
Submit corrections

comments powered by Disqus
↑ Back to top | Madball Tabs for 100%. Lyrics for acoustic guitar and electric guitar. 1 Tablatures and chords are parodies/interpretations of the original songs. You may use it for private study, scholarship, research or language learning purposes only