>
 >
Heavenhell

Heavenhell Guitar Tabs

Madball - Heavenhell chords, tabs, tablatures, lyrics

Guitar lessons | Add/correct | Request | Top 50 tabs Artists:  A B C D E F G H I J K L M N O P Q R S T U V W X Y Z 0-9

Heavenhell Guitar Tabs – Madball

CD, Sheet music, Poster

Do you like Heavenhell? Share with your friends now
Bass TabsDrum TabsTabsTabs v2
Madball

Please comment & Rate.
This tab is available for your own use. Do not copy/paste this onto other sites saying 
is your tab.


______
|Intro|


E|---------------------------------------------|
B|---------------------------------------------|
G|---------------------------------------------|
D|---2-----------------------------------------|
A|---2---------------------Pick Scrape---------|
D|---2-----------------------------------------|


-----------------------------------------------|
-----------------------------------------------|
-----------------------------------------------|
---2-------------------------------------------|
---2---------------------2-2-2--3-3-3--5-------|
---2---------------------2-2-2--3-3-3--5-------|

                                GOD HELP ME!
________
|Part 2| x 2

-----------------------------------------------------|
-----------------------------------------------------|
-----------------------------------------------------|
-----------------------------------------------------|
---2--2-----2--2-------------2/3\2-------2-2-----0-3-|
---2--2-0-0-2--2-0-0-0-0-0-0-2/3\2--0-0--2-2-0-0-0-3-|
        Pm|      Pm........|        Pm|      Pm|
-------------------------------------------------------------|
-------------------------------------------------------------|
-------------------------------------------------------------|
---2--2-----2--2---------------------------------------------|
---2--2-----2--2---------------------------------------------|
---2--2-0-0-2--2-0-0-0-0-0-0-2-2-2-3-3-3-5-5-3-3-5-5-3-2-3-2-|
        Pm|      Pm........................................|

_______
|Verse|

---------------------------------|
---------------------------------|
---------------------------------|
---2-------2--2--3--0--2-3-------| x 3
---2-------2--2--3--0--2-3-------|
---2---0-0-2--2--3--0--2-3-------|

--------------------------------------------|
--------------------------------------------|
--------------------------------------------|
--------------------------------------------|
---2---------------------------2------------|
---2---2-2-2-3-3-3-5-5-5-3-5-3-2------------|
       Pm.....................|

_______________
|Repeat part 2|

-----------------------------------------------------|
-----------------------------------------------------|
-----------------------------------------------------|
-----------------------------------------------------|
---2--2-----2--2-------------2/3\2-------2-2-----0-3-|
---2--2-0-0-2--2-2-2-2-2-2-2-2/3\2--2-2--2-2-2-2-0-3-|
                 Pm........|        Pm|      PM|
-------------------------------------------------------------|
-------------------------------------------------------------|
-------------------------------------------------------------|
-------------------------------------------------------------|
---2--2-----2--2---------------------------------------------|
---2--2-0-0-2--2-2-2-2-2-2-2-2-2-2-2-3-3-3-3-5-5-5-5-3-5-3-2-|
        Pm|      Pm........................................|

________
|Part 3|

------------------------------------------------------------|
------------------------------------------------------------|
------------------------------------------------------------|
------------------------------------------------------------|
---0-----------3---2----------3-3-3-3--5---------3-3-3-3----|
---0--0-0-0-0--3---2--2-2-2-2-3-3-3-3--5-5-5-5-5-3-3-3-3----|


------------------------------------------------------|
------------------------------------------------------|
------------------------------------------------------|
---------------------------------3--3-----------------|
---------------------------------3--3-----------------|
---0--0--0--0--0--2--2--2--2--2--3--3-----------------|


------------------------------------------------------------|
------------------------------------------------------------|
------------------------------------------------------------|
------------------------------------------------------------|
---0-----------3---2----------3-3-3-3--5---------3-3-3-3----|
---0--0-0-0-0--3---2--2-2-2-2-3-3-3-3--5-5-5-5-5-3-3-3-3----|

------------------------------------------------------------|
------------------------------------------------------------|
------------------------------------------------------------|
------------------------------------GOD SAVE ME NOW !-------|
------------------------------------------------------------|
--2--2--2--3--3--3--5---------------------------------------|

______________
|Repeat Verse|

---------------------------------|
---------------------------------|
---------------------------------|
---2-------2--2--3--0--2-3-------| x 3
---2-------2--2--3--0--2-3-------|
---2---0-0-2--2--3--0--2-3-------|

--------------------------------------------|
--------------------------------------------|
--------------------------------------------|
--------------------------------------------|
---2---------------------------2------------|
---2---2-2-2-3-3-3-5-5-5-3-5-3-2------------|
       Pm.....................|

_______________
|Repeat part 2|

-----------------------------------------------------|
-----------------------------------------------------|
-----------------------------------------------------|
-----------------------------------------------------|
---2--2-----2--2-------------2/3\2-------2-2-----0-3-|
---2--2-0-0-2--2-2-2-2-2-2-2-2/3\2--0-0--2-2-0-0-0-3-|
                 Pm........|        Pm|      PM|
-------------------------------------------------------------|
-------------------------------------------------------------|
-------------------------------------------------------------|
-------------------------------------------------------------|
---2--2-----2--2---------------------------------------------|
---2--2-0-0-2--2-2-2-2-2-2-2-2-2-2-2-3-3-3-3-5-5-5-5-3-5-3-2-|
        Pm|      Pm........................................|

_______________
|Repeat Part 3|

------------------------------------------------------------|
------------------------------------------------------------|
------------------------------------------------------------|
------------------------------------------------------------|
---0-----------3---2----------3-3-3-3--5---------3-3-3-3----|
---0--0-0-0-0--3---2--2-2-2-2-3-3-3-3--5-5-5-5-5-3-3-3-3----|


------------------------------------------------------|
------------------------------------------------------|
------------------------------------------------------|
---------------------------------3--3-----------------|
---------------------------------3--3-----------------|
---0--0--0--0--0--2--2--2--2--2--3--3-----------------|


------------------------------------------------------------|
------------------------------------------------------------|
------------------------------------------------------------|
------------------------------------------------------------|
---0-----------3---2----------3-3-3-3--5---------3-3-3-3----|
---0--0-0-0-0--3---2--2-2-2-2-3-3-3-3--5-5-5-5-5-3-3-3-3----|

------------------------------------------------------------|
------------------------------------------------------------|
------------------------------------------------------------|
--------------------5----------------IT FEELS LIKE...-------|
--------------------5---------------------------------------|
--2--2--2--3--3--3--5---------------------------------------|

________
|Part 4|

------------------------------------------------------------|
------------------------------------------------------------|
------------------------------------------------------------|
------------------------------------------------------------|
--2-----2-----2h3--------2-----2-----2h3-3------------------|
--2--0--2--0--2h3--0--0--2--0--2--0--2h3-3------------------|

------------------------------------------------------------|
------------------------------------------------------------|
------------------------------------------------------------|
------------------------------------------------------------|
--2-----2-----2h3-----------5--5--3--6--6--3--6-------------|
--2--0--2--0--2h3--0--0--0--5--5--3--6--6--3--6-------------|





Comments


Popular Madball tabs & chords
Friend Or Foe Bass Tabs
Pride Bass Tabs
Streets Of Hate Bass Tabs
The Blame Bass Tabs
Pride Tabs
Set It Off Tabs
Set It Off 1 Tabs
Show No Fear Tabs
The Blame Tabs
Tight Rope Tabs


Song lyrics



↑ Back to top | Tablatures and chords are parodies/interpretations of the original songs. You may use it for private study, scholarship, research or language learning purposes only
© 2014 AZChords.com Contact us | Privacy policy | DMCA | Add/correct tabs | Request tabs | Top 50 tabs