>
 >
Heavenhell

Heavenhell Drum Tabs

Madball - Heavenhell chords, tabs, tablatures, lyrics

Guitar lessons | Add/correct | Request | Top 50 tabs Artists:  A B C D E F G H I J K L M N O P Q R S T U V W X Y Z 0-9

Heavenhell Drum Tabs – Madball

CD, Sheet music, Poster

Do you like Heavenhell? Share with your friends now
Bass TabsDrum TabsTabsTabs v2
     E.   T  T     S  S  S  S  S  S  S  S  S  S  S  T  T  S  S  S  S  
C||------------|-----------------------------------------------------|
C||------------|-----------------------------------------45----45----|
C||------------|--40----45-45-43----40----43-43-41-------40----43----|
C||------------|-----------------------------------------------------|
C||------35-35-|--35-35-35-35-35-35-35-35-35-35-35-35-35-35-35-36-36-|
C||------36-36-|--36-36-36-36-36-36-36-36-36-36-36-36-36-36-36-35-35-|


   S  S  S  S  S  S  S  S  S  S  S  T  T  S  S  S  S  
-----------------------------------------------------|
-----------------------------------------45----45----|
--40----45-45-43----40----43-43-41-------40----43----|
-----------------------------------------------------|
--35-35-35-35-35-35-35-35-35-35-35-35-35-35-35-36-36-|
--36-36-36-36-36-36-36-36-36-36-36-36-36-36-36-35-35-|


   S  S  S  S  S  S  S  S  S  S  S  T  T  S  S  S  S  
-----------------------------------------------------|
-----------------------------------------45----45----|
--40----45-45-43----40----43-43-41-------40----43----|
-----------------------------------------------------|
--35-35-35-35-35-35-35-35-35-35-35-35-35-35-35-36-36-|
--36-36-36-36-36-36-36-36-36-36-36-36-36-36-36-35-35-|


   S  S  S  S  S  S  S  S  S  S  S  T  T  S  S  S  S  
-----------------------------------------49----57----|
-----------------------------------------45----45----|
--40----45-45-43----40----43-43-41-------40----43----|
-----------------------------------------------------|
--35-35-35-35-35-35-35-35-35-35-35-35-35-35-35-36-36-|
--36-36-36-36-36-36-36-36-36-36-36-36-36-36-36-35-35-|


   S  S  S  S  S  S  S  S  S  S  S  T  T  S  S  S  S  
--57-------------------------------------------------|
-----------------------------------------45----45----|
--40----45-45-43----40----43-43-41-------40----43----|
-----------------------------------------------------|
--35-35-35-35-35-35-35-35-35-35-35-35-35-35-35-36-36-|
--36-36-36-36-36-36-36-36-36-36-36-36-36-36-36-35-35-|


   S  S  S  S  S  S  S  S  S  S  S  T  T  S  S  S  S  
-----------------------------------------------------|
-----------------------------------------45----45----|
--40----45-45-43----40----43-43-41-------40----43----|
-----------------------------------------------------|
--35-35-35-35-35-35-35-35-35-35-35-35-35-35-35-36-36-|
--36-36-36-36-36-36-36-36-36-36-36-36-36-36-36-35-35-|


   S  S  S  S  S  S  S  S  S  S  S  T  T  S  S  S  S  
-----------------------------------------------------|
-----------------------------------------45----45----|
--40----45-45-43----40----43-43-41-------40----43----|
-----------------------------------------------------|
--35-35-35-35-35-35-35-35-35-35-35-35-35-35-35-36-36-|
--36-36-36-36-36-36-36-36-36-36-36-36-36-36-36-35-35-|


   S  S  S  S  S  S  E  H            E.   S  S  S  E   S  E   S  S  E   S  
--------------------57-----------|--57------57--------57--------57--------|
-----------47-47-45--------------|----------------------------------------|
--40-40-40----------40-----------|----------40------------------40-----40-|
---------------------------------|----------------------------------------|
--------------35-35--------------|--35---35----35-35-----35--35----35-----|
--------------36-36--------------|--36---36----36-36-----36--36----36-----|


   E   S  S  S  S  E   S  E   S  E   E   
--57--------57--------57--------57------|
----------------------------------------|
------------40------------------40------|
----------------------------------------|
--35--35-35----35-35-----35--35-----35--|
--36--36-36----36-36-----36--36-----36--|


   E   S  S  S  S  E   S  E   S  S  S  S  S  
--57--------57--------57--------57----------|
--------------------------------------------|
------------40------------------40----40-40-|
--------------------------------------------|
--35--35-35----35-35-----35--35----35-------|
--36--36-36----36-36-----36--36----36-------|


   E.   S  S  S  E   S  S  S  S  S  S  S  S  
--57------57----49--57----49----57----------|
--------------------------59----49----------|
----------40-----------40-------40----40-40-|
--------------------------------------------|
--35---35----35-35-----------35----35-------|
--36---36----36-36-----------36----36-------|


   E.   S  S  S  E   S  E   S  S  E   S  
--57------57--------57--------57--------|
----------------------------------------|
----------40------------------40-----40-|
----------------------------------------|
--35---35----35-35-----35--35----35-----|
--36---36----36-36-----36--36----36-----|


   E.   S  S  S  E   S  E   T  T  E   E   
--57------57--------57-----------57------|
-----------------------------------------|
----------40---------------------40------|
-----------------------------------------|
--35---35----35-35-----35--35-35-----35--|
--36---36----36-36-----36--36-36-----36--|


   E   S  S  S  S  E   S  E   S  S  S S  S  
--57--------57--------57--------57---------|
-------------------------------------------|
------------40------------------40------40-|
-------------------------------------------|
--35--35-35----35-35-----35--35----35------|
--36--36-36----36-36-----36--36----36------|


   E.   S  S  S  E   S  S  S  S     S  S  S  S  
--57------57----49--57----49-------------------|
--------------------------59-------------------|
----------40-----------40-------40g40----40-40-|
-----------------------------------------------|
--35---35----35-35-----------35-------35-------|
--36---36----36-36-----------36-------36-------|


   E.   S  Q     E   E   E  S  S     E.   S  E   E   S  E   S  S S  S  S  
--57------46----46------46-------|--46------46------46--------46---------|
---------------------------------|---------------------------------------|
----------40------------40-------|----------40----------------40---40-40-|
---------------------------------|---------------------------------------|
--35---35-----------35--------35-|--36---35-----35-----35--35------------|
--36---36-----------36--------36-|--35---36-----36-----36--36------------|


   E.   S  Q     E   E   E  S  S     E.   S  E   E   S  E   S     S  S  S  S  
--57------46----46------46-------|--46------46------46-----------------------|
---------------------------------|-------------------------------------------|
----------40------------40-------|----------40---------40-----40g40----45-45-|
---------------------------------|-------------------------------------------|
--35---35-----------35--------35-|--36---35-----35---------35-------35-------|
--36---36-----------36--------36-|--35---36-----36---------36-------36-------|


   S  S  S  S  S  S  S  S  S  S  S  S  S  S  S  S  
--57----------46----------46----------46----------|
--------------------------------------------------|
--------------40----------------------40----------|
--------------------------------------------------|
--35-35-35-35-35-35-35-35-35-35-35-35-35-35-35-35-|
--36-36-36-36-36-36-36-36-36-36-36-36-36-36-36-36-|


   S  S  S  S  S  S  S  S  S  S  S  S  S  S  S  S  
--46----------46----------46----------46----------|
--------------------------------------------------|
--------------40----------------------40----40-40-|
--------------------------------------------------|
--35-35-35-35-35-35-35-35-35-35-35-35-35-35-35-35-|
--36-36-36-36-36-36-36-36-36-36-36-36-36-36-36-36-|


                                                |--3--|  
   S  S  S  S  S  S  S  S  S  S  S  S  S  S  S  T  T  T  
--57----------46----------46----------46----------------|
--------------------------------------------------------|
--------------40----------------------40----------------|
--------------------------------------------------------|
--35-35-35-35-35-35-35-35-35-35-35-35-35-35-35-35-35-35-|
--36-36-36-36-36-36-36-36-36-36-36-36-36-36-36-36-36-36-|


                  |--3--|                 |--3--|        
   S  S  S  S  S  T  T  T  S  S  S  S  S  T  T  T  Q     
--57----46----46----------57----46----46----------------|
--------------------------------------------------43----|
--40-------40-------------40-------40-------------45----|
--------------------------------------------------41----|
-----35----------35-35-35----35----------35-35-35-------|
-----36----------36-36-36----36----------36-36-36-------|


   E.   S  S  S  E   S  E   S  S  E   S  
--57------57--------57--------57--------|
----------------------------------------|
----------40------------------40-----40-|
----------------------------------------|
--35---35----35-35-----35--35----35-----|
--36---36----36-36-----36--36----36-----|


   E   S  S  S  S  E   S  E   S  E   E   
--57--------57--------57--------57------|
----------------------------------------|
------------40------------------40------|
----------------------------------------|
--35--35-35----35-35-----35--35-----35--|
--36--36-36----36-36-----36--36-----36--|


   E   S  S  S  S  E   S  E   S  S  S  S  S  
--57--------57--------57--------57----------|
--------------------------------------------|
------------40------------------40----40-40-|
--------------------------------------------|
--35--35-35----35-35-----35--35----35-------|
--36--36-36----36-36-----36--36----36-------|


   E.   S  S  S  E   S  S  S  S  S  S  S  S  
--57------57----49--57----49----57----------|
--------------------------59----49----------|
----------40-----------40-------40----40-40-|
--------------------------------------------|
--35---35----35-35-----------35----35-------|
--36---36----36-36-----------36----36-------|


   E.   S  S  S  E   S  E   S  S  E   S  
--57------57--------57--------57--------|
----------------------------------------|
----------40------------------40-----40-|
----------------------------------------|
--35---35----35-35-----35--35----35-----|
--36---36----36-36-----36--36----36-----|


   E.   S  S  S  E   S  E   T  T  E   E   
--57------57--------57-----------57------|
-----------------------------------------|
----------40---------------------40------|
-----------------------------------------|
--35---35----35-35-----35--35-35-----35--|
--36---36----36-36-----36--36-36-----36--|


   E   S  S  S  S  E   S  E   S  S  S S  S  
--57--------57--------57--------57---------|
-------------------------------------------|
------------40------------------40------40-|
-------------------------------------------|
--35--35-35----35-35-----35--35----35------|
--36--36-36----36-36-----36--36----36------|


   E   S  S  S  S  E   S  S  S  S  S  S  S  S  
--49--------57----49--57----------------------|
----------------------------------45-45-------|
---------40-------40-----40-40-40-------43-43-|
----------------------------------------------|
--35--35-------35-----------------------------|
--36--36-------36-----------------------------|


   E   S  S  S  S  E   S  S  E   E   S  S  
--57--46----46----49--46----46--46--46----|
------------------------------------------|
------------40------------------40-----40-|
------------------------------------------|
--35--35-35----35-35-----35-35------------|
--36--36-36----36-36-----36-36------------|


   S  S  S  S  S  S  E   S  S  E   E   S  S  
--57----46----46----49--46----46--46--46----|
--------------------------------------------|
--------------40------------------40-----40-|
--------------------------------------------|
--35-35-35-35----35-35-----35-35------------|
--36-36-36-36----36-36-----36-36------------|


                                       |--3--|  
   E   S  S  S  S  E   S  S  E   E   S T  T  T  
--57--46----46----49--46----46--46--46---------|
-----------------------------------------------|
------------40------------------40-------------|
-----------------------------------------------|
--35--35-35----35-35-----35-35-----------35-35-|
--36--36-36----36-36-----36-36-----------36-36-|


   S  S  S  S  S  S  S  S  S  S  S  E   E   S  
-----------------------------------57--57-----|
----------------------------------------------|
--43-43-41-41-40-41-41-41-41-41-41-40--40--40-|
----------------------------------------------|
-----------35----35-------35------------------|
-----------36----36-------36------------------|


   E   S  S  S  S  E   S  S  E   E   S  S  
--57--46----46----49--46----46--46--46----|
------------------------------------------|
------------40------------------40-----40-|
------------------------------------------|
--35--35-35----35-35-----35-35------------|
--36--36-36----36-36-----36-36------------|


   S  S  S  S  S  S  E   S  S  E   E   S  S  
--57----46----46----49--46----46--46--46----|
--------------------------------------------|
--------------40------------------40-----40-|
--------------------------------------------|
--35-35-35-35----35-35-----35-35------------|
--36-36-36-36----36-36-----36-36------------|


   E   S  S  S  S  E   S  S  E   E   S  S  
--57--46----46----49--46----46--46--46----|
------------------------------------------|
------------40------------------40--------|
------------------------------------------|
--35--35-35----35-35-----35-35---------35-|
--36--36-36----36-36-----36-36---------36-|


      S  S  S     S  S  S     E  H            E.   S  Q     E   E   E  S  S  
------------------------------------------|--57------46----46------46-------|
------------------------------------------|---------------------------------|
--45g43-------45g43-------40g40-----------|----------40------------40-------|
------------------------------------------|---------------------------------|
--------35-35-------35-35-----------------|--35---35-----------35--------35-|
--------36-36-------36-36-----------------|--36---36-----------36--------36-|


   E.   S  E   E   S  E   S  S S  S  S     E.   S  Q     E   E   E  S  S  
--46------46------46--------46---------|--57------46----46------46-------|
---------------------------------------|---------------------------------|
----------40----------------40---40-40-|----------40------------40-------|
---------------------------------------|---------------------------------|
--36---35-----35-----35--35------------|--35---35-----------35--------35-|
--35---36-----36-----36--36------------|--36---36-----------36--------36-|


   E.   S  E   E   S  E   S     S  S  S  S  
--46------46------46-----------------------|
-------------------------------------------|
----------40---------40-----40g40----45-45-|
-------------------------------------------|
--36---35-----35---------35-------35-------|
--35---36-----36---------36-------36-------|


   S  S  S  S  S  S  S  S  S  S  S  S  S  S  S  S  
--57----------46----------46----------46----------|
--------------------------------------------------|
--------------40----------------------40----------|
--------------------------------------------------|
--35-35-35-35-35-35-35-35-35-35-35-35-35-35-35-35-|
--36-36-36-36-36-36-36-36-36-36-36-36-36-36-36-36-|


   S  S  S  S  S  S  S  S  S  S  S  S  S  S  S  S  
--46----------46----------46----------46----------|
--------------------------------------------------|
--------------40----------------------40----40-40-|
--------------------------------------------------|
--35-35-35-35-35-35-35-35-35-35-35-35-35-35-35-35-|
--36-36-36-36-36-36-36-36-36-36-36-36-36-36-36-36-|


   S  S  S  S  S  S  S  S  S  S  S  S  E.   T  T  
--57----------46----------46----------46---------|
-------------------------------------------------|
--------------40----------------------40---------|
-------------------------------------------------|
--35-35-35-35-35-35-35-35-35-35-35-35-35---35-35-|
--36-36-36-36-36-36-36-36-36-36-36-36-36---36-36-|


   S  S  S  S  S  S  E   S  S  S  S  E   S  S  
--57-------49-------57------------------------|
---------------------------47-----------------|
--40-------40-------40--45----45----40--40-40-|
----------------------------------------------|
-----35-35----35-35--------------35-----------|
-----36-36----36-36--------------36-----------|


   E.   S  S  S  E   S  E   S  S  E   S  
--57------57--------57--------57--------|
----------------------------------------|
----------40------------------40-----40-|
----------------------------------------|
--35---35----35-35-----35--35----35-----|
--36---36----36-36-----36--36----36-----|


   E   S  S  S  S  E   S  E   S  E   E   
--57--------57--------57--------57------|
----------------------------------------|
------------40------------------40------|
----------------------------------------|
--35--35-35----35-35-----35--35-----35--|
--36--36-36----36-36-----36--36-----36--|


   E   S  S  S  S  E   S  E   S  S  S  S  S  
--57--------57--------57--------57----------|
--------------------------------------------|
------------40------------------40----40-40-|
--------------------------------------------|
--35--35-35----35-35-----35--35----35-------|
--36--36-36----36-36-----36--36----36-------|


   E.   S  S  S  E   S  S  S  S  S  S  S  S  
--57------57----49--57----49----57----------|
--------------------------59----49----------|
----------40-----------40-------40----40-40-|
--------------------------------------------|
--35---35----35-35-----------35----35-------|
--36---36----36-36-----------36----36-------|


   E.   S  S  S  E   S  E   S  S  E   S  
--57------57--------57--------57--------|
----------------------------------------|
----------40------------------40-----40-|
----------------------------------------|
--35---35----35-35-----35--35----35-----|
--36---36----36-36-----36--36----36-----|


   E.   S  S  S  E   S  E   T  T  E   E   
--57------57--------57-----------57------|
-----------------------------------------|
----------40---------------------40------|
-----------------------------------------|
--35---35----35-35-----35--35-35-----35--|
--36---36----36-36-----36--36-36-----36--|


   E   S  S  S  S  E   S  E   S  S  S S  S  
--57--------57--------57--------57---------|
-------------------------------------------|
------------40------------------40------40-|
-------------------------------------------|
--35--35-35----35-35-----35--35----35------|
--36--36-36----36-36-----36--36----36------|


   E   S  S  S  S  E   S  S  S  S  S  S  S  S  
--49--------57----49--57----------------------|
----------------------------------45-45-------|
---------40-------40-----40-40-40-------43-43-|
----------------------------------------------|
--35--35-------35-----------------------------|
--36--36-------36-----------------------------|


   E   S  S  S  S  E   S  S  E   E   S  S  
--57--46----46----49--46----46--46--46----|
------------------------------------------|
------------40------------------40-----40-|
------------------------------------------|
--35--35-35----35-35-----35-35------------|
--36--36-36----36-36-----36-36------------|


   S  S  S  S  S  S  E   S  S  E   E   S  S  
--57----46----46----49--46----46--46--46----|
--------------------------------------------|
--------------40------------------40-----40-|
--------------------------------------------|
--35-35-35-35----35-35-----35-35------------|
--36-36-36-36----36-36-----36-36------------|


                                       |--3--|  
   E   S  S  S  S  E   S  S  E   E   S T  T  T  
--57--46----46----49--46----46--46--46---------|
-----------------------------------------------|
------------40------------------40-------------|
-----------------------------------------------|
--35--35-35----35-35-----35-35-----------35-35-|
--36--36-36----36-36-----36-36-----------36-36-|


   S  S  S  S  S  S  S  S  S  S  S  E   E   S  
-----------------------------------57--57-----|
----------------------------------------------|
--43-43-41-41-40-41-41-41-41-41-41-40--40--40-|
----------------------------------------------|
-----------35----35----36-35------------------|
-----------36----36----35-36------------------|


   E   S  S  S  S  E   S  S  E   E   S  S  
--57--46----46----49--46----46--46--46----|
------------------------------------------|
------------40------------------40-----40-|
------------------------------------------|
--35--35-35----35-35-----35-35------------|
--36--36-36----36-36-----36-36------------|


   S  S  S  S  S  S  E   S  S  E   E   S  S  
--57----46----46----49--46----46--46--46----|
--------------------------------------------|
--------------40------------------40-----40-|
--------------------------------------------|
--35-35-35-35----35-35-----35-35------------|
--36-36-36-36----36-36-----36-36------------|


   E   S  S  S  S  E   S  S  E   E   S  T  T  
--57--46----46----49--46----46--46--46-------|
---------------------------------------------|
------------40------------------40-----------|
---------------------------------------------|
--35--35-35----35-35-----35-35---------35-35-|
--36--36-36----36-36-----36-36---------36-36-|


      S  S  S     S  S  S  E  H           W                   W                 
--------------------------57-----------|-------------------|-------------------|
--------------------------49-----------|-------------------|-------------------|
--45g43-------45g43-------40-----------|-------------------|-------------------|
---------------------------------------|-------------------|-------------------|
--------35-35-------35-35--------------|-------------------|-------------------|
--------36-36-------36-36--------------|-------------------|-------------------|


   T  T  S  E   E   E   T  T  S  E   E   E      Q     E   Q     Q     E   
--------------------------------------------|--57--------57----57----57--|
--------------------------------------------|----------------------------|
-----------45--43--41-----------45--43--41--|------------------40--------|
-----------47--45--43-----------47--45--43--|----------------------------|
--35-35-35-------------35-35-35-------------|--35----35--35--------------|
--36-36-36-------------36-36-36-------------|--36----36--36--------------|


   E   Q     Q     E   E   E      E   E   E   Q     Q     E   
------57----57----57------57--|------57------57----57----57--|
------------------------------|------------------------------|
------------------40----------|--40----------------40--------|
------------------------------|------------------------------|
--35--35----35--------35--35--|----------35--35--------------|
--36--36----36--------36--36--|----------36--36--------------|


   E   Q     E   E   E   E   E      Q     E   Q     Q     E   
------57----57------57------49--|--57--------57----57----57--|
--------------------------------|----------------------------|
--------------------40----------|------------------40--------|
--------------------------------|----------------------------|
--35--35--------35------35--35--|--35----35--35--------------|
--36--36--------36------36--36--|--36----36--36--------------|


   E   Q     Q     E   E   E      E   E   E   Q     Q     E   
------57----57----57------57--|------57------57----57----57--|
------------------------------|------------------------------|
------------------40----------|--40----------------40--------|
------------------------------|------------------------------|
--35--35----35--------35--35--|----------35--35--------------|
--36--36----36--------36--36--|----------36--36--------------|


   T  T  S  E   E   E   T  T  S  E   E   E      Q     E   Q     Q     E   
--------------------------------------------|--57--------57----57----57--|
--------------------------------------------|----------------------------|
-----------45--43--41-----------45--43--41--|------------------40--------|
-----------47--45--43-----------47--45--43--|----------------------------|
--35-35-35-------------35-35-35-------------|--35----35--35--------------|
--36-36-36-------------36-36-36-------------|--36----36--36--------------|


   E   Q     Q     E   E   E      E   E   E   Q     Q     E   
------57----57----57------57--|------57------57----57----57--|
------------------------------|------------------------------|
------------------40----------|--40----------------40--------|
------------------------------|------------------------------|
--35--35----35--------35--35--|----------35--35--------------|
--36--36----36--------36--36--|----------36--36--------------|


   E   Q     E   E   E   E   E      Q     E   Q     Q     E   
------57----57------57------49--|--57--------57----57----57--|
--------------------------------|----------------------------|
--------------------40----------|------------------40--------|
--------------------------------|----------------------------|
--35--35--------35------35--35--|--35----35--35--------------|
--36--36--------36------36--36--|--36----36--36--------------|


   E   Q     Q     E   E   E      E   E   E   Q     Q     E   
------57----57----57------57--|------57------57----57----57--|
------------------------------|------------------------------|
------------------40----------|--40----------------40--------|
------------------------------|------------------------------|
--35--35----35--------35--35--|----------35--35--------------|
--36--36----36--------36--36--|----------36--36--------------|


   E   E   E   E   E   E   E   E      W                  
------57----------57--49--57--49--|--57----------------||
----------------------------------|--------------------||
----------40----------40----------|--40----------------||
----------------------------------|--------------------||
--35--35------35--35------35--35--|--------------------||
--36--36------36--36------36--36--|--------------------||




Duration Legend
---------------
W - whole
H - half
Q - quarter
E - 8th
S - 16th
T - 32nd
X - 64th
. - note dotted
|-n-|  - n-tuplets


Tablature Legend
----------------
L - tied note
x - dead note
g - grace note
(n) - ghost note
> - accentuded note
NH - natural harmonic
AH - artificial harmonic
TH - tapped harmonic
SH - semi harmonic
PH - pitch harmonic
h - hammer on
p - pull off
b - bend
br - bendRelease
pb - preBend
pbr - preBendRelease
brb - bendReleaseBend
\n/ - tremolo bar dip
\n - tremolo bar dive
-/n - tremolo bar Release up
/n\ - tremolo bar inverted dip
/n - tremolo bar return
-\n - tremolo bar Release down
S - shift slide
s - legato slide
/ -  slide into from below or out of upwards
\ -  slide into from above or out of downwards
~ - vibrato
W - wide vibrato
tr - trill
TP - tremolo picking
T - tapping
S - slap
P - pop
< - fade in
^ - brush up
v - brush down





Comments


Popular Madball tabs & chords
Friend Or Foe Bass Tabs
Pride Bass Tabs
For My Enemies Tabs
Heavenhell Tabs
Heavenhell 1 Tabs
New York City Tabs
Set It Off Tabs
Set It Off 1 Tabs
Show No Fear Tabs
The Blame Tabs


Song lyrics



↑ Back to top | Tablatures and chords are parodies/interpretations of the original songs. You may use it for private study, scholarship, research or language learning purposes only
© 2014 AZChords.com Contact us | Privacy policy | DMCA | Add/correct tabs | Request tabs | Top 50 tabs