» » »

Para Mi Gente Tabs (ver.1)

Artists:  A B C D E F G H I J K L M N O P Q R S T U V W X Y Z # 

Para Mi Gente Tabs (ver.1)

Madball
Rating:
0/5 (0 votes)

Hard to play? Try these video lessons and learn fast.
                Madball		-	Para Mi Gente

Tuning: Drop D

Please rate or commment...


			--Intro part I--

---------------------------------------|
---------------------------------------|
---------------------------------------|
---------------------------------------|	x 2
---------------------------------------|
-0-0-0-0-0-0-0-0-0-0-0-0-0-0-0-0-0-----|
Pm::::::::::::::::::::::::::::::::
		(gradually release the palm mute the second time)

			--Intro part II:--


      D5               C5        D#5
---------------------------------------|
---------------------------------------|
-7-7-7-77-7-77-7-77-5-5-5-555-88-8-8-8-|
-7-7-7-77-7-77-7-77-5-5-5-555-88-8-8-8-|
-5-5-5-55-5-55-5-55-3-3-3-333-66-6-6-6-|
---------------------------------------|
     D5   G5   D5      A5    Bb5 A5 C5
--------------------------------------|
--------------------------------------|
-7-7-7-77-555-7-777--2-2-2-22-3-2-2-5-|
-7-7-7-77-555-7-777--2-2-2-22-3-2-2-5-|
-5-5-5-55-333-5-555--0-0-0-00-1-0-0-3-|
--------------------------------------|

			--Verse--

--------------------------------------|_____
--------------------------------------|	    \
--------------------------------------|     |
--------------------------------------| x3  |
------0--------0--------0-1-11--------|     |  
-0-00-0---0-00-0---0-00-0-1-11--------|     |-- x2
                                            |
                                            |
--------------------------------------|     |
--------------------------------------|     |
--------------------------------------|_____/
--------------------------------------|
------0--------0---0--1--00--3-3-3----|
-0-00-0---0-00-0---0--1--00--3-3-3----|

			--Chorus--
		Repeat intro part II

			--Verse 2--
			
			--Chorus 2--

			--Bridge--

----------------------------------------------------|
----------------------------------------------------|
----------------------------------------------------|
----------------------------------------------------| x2
--------------------------------------------1-01-3--|
-00-0-0-0-0-1111-0-0-0-0-0-0-1111-0-0-0-0-0-1-01-3--|

			--Chorus 3--
			    x 2
			
			--End on--

--------------------------------------|
--------------------------------------|
--------------------------------------|
---0----------------------------------|
---0----------------------------------|
---0----------------------------------|

		
            
Hard to play? Try these video lessons and learn fast. | Correct




comments powered by Disqus
↑ Back to top | Tablatures and chords are parodies/interpretations of the original songs. You may use it for private study, scholarship, research or language learning purposes only