» » »

Machine Head, Aesthetics Of Hate Tabs (ver.2)

Artists:  A B C D E F G H I J K L M N O P Q R S T U V W X Y Z # 

Aesthetics Of Hate Tabs (ver.2)

Machine Head Tabs
Rating:
5/5 (5 votes)
Aesthetics Of Hate lessons Tabs too difficult? Try these video lessons and learn fast
                (Intro)
This is max j former band of machine head and slipknot but got kicked out cos i was too 
(Already History Rule. Hear them soon)

This is aesthetics of hate, my favourite song. It is ****** amazing
C#|--------------------------|---------------|
G#|--------------------------|---------------|
E |---------------------3----|---------------|        8 TIMES
B |-------2----3----5--------|--5---3h5p3/2--|
F#|--------------------------|---------------|
C#|---0-(0)------------------|---------------|

Overdrive:

|-------------------------------------------------|
|-------------------------------------------------|
|-------------------------------------------------| (NOTE: THE CLEAN INTRO
|-------------------------8-----------------------|  CAN BE PLAYED THIS WAY
|------7----8------10-----------10-----8h10p8/7---|  BUT IT SOUNDS BETTER
|-0-0----0-----0-------0-----0------0-------------|  THE WAY IT IS ABOVE)
PM..     .     .       .     .      .

|---------------------------||---------------------------|
|---------------------------||---------------------------|
|---------------------------||---------------------------|
|-6-(6)---------------------||---------------------------|
|-6-(6)---------------------||---------------------ox----|
|-4-(4)---------------------||---------------------ox----|

|------------------------------[/13]----/16-----[/14]-|
|-------------/9---[/12]---/15------------------------|
|---/7--[/6]------------------------------------------|
|-----------------------------------------------------|
|-----------------------------------------------------|
|-----------------------------------------------------|
            
Submit corrections

comments powered by Disqus
↑ Back to top | Machine Head Tabs for Aesthetics Of Hate. Lyrics for acoustic guitar and electric guitar. Tablatures and chords are parodies/interpretations of the original songs. You may use it for private study, scholarship, research or language learning purposes only