>
 >
Aesthetics Of Hate 1

Aesthetics Of Hate 1 Bass Tabs

Machine Head - Aesthetics Of Hate 1 chords, tabs, tablatures, lyrics

Guitar lessons | Add/correct | Request | Top 50 tabs Artists:  A B C D E F G H I J K L M N O P Q R S T U V W X Y Z 0-9

Aesthetics Of Hate 1 Bass Tabs – Machine Head

CD, Sheet music, Poster

Do you like Aesthetics Of Hate 1? Share with your friends now
Bass TabsBass Tabs v2TabsTabs v2Tabs v3
Band: Machine Head
Bassist: Adam Duce
Tuning: C# tuning

Note:
I made this tab based on the bass master track of the song, so you can be
completely sure that this tab is 100% correct. 

You can hear the bass master track here:

Intro

E |---------|
B |---------|
F#|---------|
C#|-0-0---4-|

Verse 1

E |-------------------------------------------|
B |-------------------------------------------|
F#|-------------------------------------------|
C#|-0-0---6-6-666-6-6-666-6-6-666-6-6-666-0-0-|

E |---------------------------------|
B |---------------------------------|
F#|---------------------------------|
C#|-3-3-333-3-3-333-3-3-333-3-3-333-|

E |---------------------------|
B |---------------------------|
F#|---------------------------|
C#|-0-0-0-0--0--0--0--0--0--0-|

E |-----------------------------------|
B |-----------------------------------|
F#|-----------------------------------|
C#|-6-6-666-6-6-666-6-6-666-6-6-666-0-|

E |-----------------------------------------------------------------|
B |-----------------------------------------------------------------|
F#|-----------------------------------------------------------------|
C#|-3-3-333-3-3-333-3-3-333-3-3-333-3-3-333-3-3-333-3-3-333-3-3-333-|

Chorus

E |------------------------------|
B |------------------------------|
F#|------------------------------|
C#|-5--4--5--4--5--4--1--1-0-4-0-|

E |---|
B |---|
F#|---|
C#|-4-|

Verse 2

E |-------------------------------------------|
B |-------------------------------------------|
F#|-------------------------------------------|
C#|-0-0---6-6-666-6-6-666-6-6-666-6-6-666-0-0-|

E |---------------------------------|
B |---------------------------------|
F#|---------------------------------|
C#|-3-3-333-3-3-333-3-3-333-3-3-333-|

E |---------------------------|
B |---------------------------|
F#|---------------------------|
C#|-0-0-0-0--0--0--0--0--0--0-|

E |-----------------------------------|
B |-----------------------------------|
F#|-----------------------------------|
C#|-6-6-666-6-6-666-6-6-666-6-6-666-0-|

E |-----------------------------------------------------------------|
B |-----------------------------------------------------------------|
F#|-----------------------------------------------------------------|
C#|-3-3-333-3-3-333-3-3-333-3-3-333-3-3-333-3-3-333-3-3-333-3-3-333-|

Chorus

E |------------------------------|
B |------------------------------|
F#|------------------------------|
C#|-5--4--5--4--5--4--1--1-0-4-0-|

Bridge

E |---------------------------------------|
B |---------------------------------------|
F#|---------------------------------------|
C#|-12\-000-0-0--000-0-0--000-0-0-000-12\-|

E |-----------------------------------|
B |-----------------------------------| x2
F#|-777-7-7--777-7-7--777-7-7-777-----|
C#|-000-0-0--000-0-0--000-0-0-000-12\-|

Interlude

E |-------------------------|
B |---4p2h4---4p2h4---------| x3
F#|-----------------0h3-0h3-|
C#|-2-------2---------------|

E |--------------------|
B |---4p2h4---------9b-|
F#|---------3/7--------|
C#|-2-----------8-7----|

E |-------------------------|
B |---4p2h4---4p2h4---------| x3
F#|-----------------0h3-0h3-|
C#|-2-------2---------------|

E |--------------------|
B |---4p2h4---------9b-|
F#|---------3/7--------|
C#|-2-----------8-7----|

Guitar solos

E |-----------------------------------------------------------------|
B |-----------------------------------------------------------------|
F#|-----------------------------------------------------------------|
C#|-5-5-5-5-5-5-5-5-5-5-5-5-5-5-5-5-5-5-5-5-5-5-5-5-5-5-5-5-5-5-5-5-|

E |-----------------------------------------------------------------|
B |-----------------------------------------------------------------|
F#|-----------------------------------------------------------------|
C#|-1-1-1-1-1-1-1-1-1-1-1-1-1-1-1-1-1-1-1-1-1-1-1-1-1-1-1-1-1-1-1-1-|

E |---------------------------------|
B |---------------------------------| x4
F#|---------------------------------|
C#|-0-0-0-0-0-0-0-0-0-0-0-0-1-1-1-1-|

E |-----------------------------------------------------------------|
B |-----------------------------------------------------------------|
F#|-----------------------------------------------------------------|
C#|-5-5-5-5-5-5-5-5-5-5-5-5-5-5-5-5-5-5-5-5-5-5-5-5-5-5-5-5-5-5-5-5-|

E |-----------------------------------------------------------------|
B |-----------------------------------------------------------------|
F#|-----------------------------------------------------------------|
C#|-1-1-1-1-1-1-1-1-1-1-1-1-1-1-1-1-1-1-1-1-1-1-1-1-1-1-1-1-1-1-1-1-|

E |---------------------------------|
B |---------------------------------| x4
F#|---------------------------------|
C#|-0-0-0-0-0-0-0-0-0-0-0-0-1-1-1-1-|

E |-----------------------------------------------------------------|
B |-----------------------------------------------------------------|
F#|-----------------------------------------------------------------|
C#|-5-5-5-5-5-5-5-5-5-5-5-5-5-5-5-5-5-5-5-5-5-5-5-5-5-5-5-5-5-5-5-5-|

E |-----------------------------------------------------------------|
B |-----------------------------------------------------------------|
F#|-----------------------------------------------------------------|
C#|-1-1-1-1-1-1-1-1-1-1-1-1-1-1-1-1-1-1-1-1-1-1-1-1-1-1-1-1-1-1-1-1-|

E |---------------------------------|
B |---------------------------------| x4
F#|---------------------------------|
C#|-0-0-0-0-0-0-0-0-0-0-0-0-1-1-1-1-|

E |-----------------------------------------------------------------|
B |-----------------------------------------------------------------|
F#|-----------------------------------------------------------------|
C#|-5-5-5-5-5-5-5-5-5-5-5-5-5-5-5-5-5-5-5-5-5-5-5-5-5-5-5-5-5-5-5-5-|

E |-----------------------------------------------------------------|
B |-----------------------------------------------------------------|
F#|-----------------------------------------------------------------|
C#|-1-1-1-1-1-1-1-1-1-1-1-1-0-0-0-0-1-1-1-1-1-1-1-1-1-1-1-1-1-1-1-1-|

E |---------------------------------|
B |---------------------------------| x4
F#|---------------------------------|
C#|-0-0-0-0-0-0-0-0-0-0-0-0-1-1-1-1-|

Verse 3

E |-----------------------------------------------------------------|
B |-----------------------------------------------------------------|
F#|-----------------------------------------------------------------|
C#|-5-5-5-5-5-5-5-5-5-5-5-5-5-5-5-5-5-5-5-5-5-5-5-5-5-5-5-5-5-5-5-5-|

E |-----------------------------------------------------------------|
B |-----------------------------------------------------------------|
F#|-----------------------------------------------------------------|
C#|-1-1-1-1-1-1-1-1-1-1-1-1-1-1-1-1-1-1-1-1-1-1-1-1-1-1-1-1-1-1-1-1-|

E |---------------------------------|
B |---------------------------------| x4
F#|---------------------------------|
C#|-0-0-0-0-0-0-0-0-0-0-0-0-1-1-1-1-|

E |-----------------------------------------------------------------|
B |-----------------------------------------------------------------| x2
F#|-----------------------------------------------------------------|
C#|-5-5-5-5-5-5-5-5-8-8-8-8-8-8-8-8-4-4-4-4-4-4-4-4-1-1-1-1-1-1-1-1-|

E |---------------------------------|
B |---------------------------------| x2
F#|---------------------------------|
C#|-5-5-5-5-8-8-8-8-4-4-4-4-1-1-1-1-|

E |----------|
B |----------| x4
F#|----------|
C#|-5-/8-4-1-|

E |--------------|
B |--------------|
F#|--------------|
C#|-1---1--1-0-4-|

E |---------------------------|
B |---------------------------|
F#|---------------------------|
C#|-0-0-0-0--0--0--0--0--0--0-|

E |-------------------------------------|
B |-------------------------------------|
F#|-------------------------------------|
C#|-12-12-12-12--12--12--12--12--12--12-|

E |---------------------------------|---------------------------------|
B |---------------------9---8-------|---------------------6---5-------|
F#|-----------------------------8---|-----------------------------5---|
C#|-6-6-6-6-9-6-6-6-9-6---6---6---6-|-3-3-3-3-6-3-3-3-6-3---3---6---6-|

Outro

E |----------------------|
B |----------------------|
F#|----------------------|
C#|-0-0-0-1-3-/6-3-1/3-0-|
    P.M.

E |----------------------|
B |----------------------| x6
F#|----------------------|
C#|-0-0-0-1-3-/6-3-1/3-0-|

E |--------------------|
B |--------------------|
F#|--------------------|
C#|-0-0-0-1-3-/6--1--0-|

Legend
------
| /    = slide up
| \    = slide down
| h    = hammer-on
| p    = pull-off
| P.M. = palm mute





Comments


Popular Machine Head tabs & chords
Aesthetics Of Hate Bass Tabs
Imperium Drum Tabs
Block Tabs
Crashing Around Me Tabs
Devil With The King's Card Tabs
Now I Lay Thee Down Tabs
Old 1 Tabs
Seasons Wither Intro Tabs
The Rage To Overcome Tabs
White-Knuckle Blackout! Tabs


Song lyrics



↑ Back to top | Tablatures and chords are parodies/interpretations of the original songs. You may use it for private study, scholarship, research or language learning purposes only
© 2014 AZChords.com Contact us | Privacy policy | DMCA | Add/correct tabs | Request tabs | Top 50 tabs