» » »

Machine Head, Aesthetics Of Hate Tabs (ver.3)

Artists:  A B C D E F G H I J K L M N O P Q R S T U V W X Y Z # 

Aesthetics Of Hate Tabs (ver.3)

Machine Head Tabs
 Rating:
3.3/5 (6 votes)
Aesthetics Of Hate lessons Tabs too difficult? Try these video lessons and learn fast
                Aesthetics of Hate!! - Machine head
(lead)

(clean)
intro
-|--------------------------------|
-|--------------------------------|
-|----------3---------------------|
-|----2-3-5---5--3-5-3-2----------|
-|--------------------------------|
-|--0-----------------------------| x8

(distortion)
-|---------------------------------------------------------|
-|---------------------------------------------------------|
-|------------------3--------------------------------------|
-|------2---3---5------5-----3-5-3-2-----------6-----------|
-|---------------------------------------------6-let ring--|
-|--0-0---0---0---0--0---0---------------------4-----------|

-|--------------------------/13--/16--15(harmonic)--| use whammy bar on the harmonic
-|--------/6--/9--/12--/15--------------------------|
-|----/7--------------------------------------------|
-|--------------------------------------------------|
-|--------------------------------------------------|
-|--------------------------------------------------|

(distortion)
Verse
-|----------------------------------------|
-|----------------------------------------|
-|------------------3---------------------|
-|------2---3---5------5-----3-5-3-2------|
-|----------------------------------------|
-|--0-0---0---0---0--0---0----------------|

-|----------------------------|
-|----------------------------|
-|----------------------------|
-|--------------------9-8-----|
-|------------------------8~~-|
-|--6-6-7-6-9-6-7-6-----------|

-|----------------------------------------|
-|----------------------------------------|
-|------------------3---------------------|
-|------2---3---5------5-----3-5-3-2------|
-|----------------------------------------|
-|--0-0---0---0---0--0---0----------------|

-|----------------------------|
-|----------------------------|
-|----------------------------|
-|--------------------6-5-----|
-|------------------------5~~-|
-|--3-3-4-3-6-3-4-3-----------|   play all that twice then..

-|----------------------------|
-|--------------------9-8-----|
-|------------------------7---|
-|--5-5-6-5-8-5-6-5-----------|
-|----------------------------|
-|----------------------------|

chorus
-|----------------------------|
-|----------------------------|
-|----------------------------|
-|--7---10---6---3------------|
-|----------------------------|
-|--5---8----4---1------------| x3

-|----------------------------|
-|----------------------------|
-|----------------------------|
-|--3---2-2--3----------------|
-|--3---2-2--3----------------|
-|--1---0-0--1----------------|
then straight to the bridge

-|------------------------------|
-|------------------------------|
-|------------------------------| 1st guitar
-|------------------------------|
-|------------------------------|
-|--0-0-0-0-0--0----------------| x4

-|------------------------------|
-|------------------------------|
-|------------------------------| 2nd guitar
-|------------------------------|
-|------------------------------|
-|--0-------------0-0-0-0-0--0--| x4


-|--------------------------/13--/16--15(harmonic)--|
-|--------/6--/9--/12--/15--------------------------|
-|----/7--------------------------------------------|
-|--------------------------------------------------|
-|--------------------------------------------------|
-|--------------------------------------------------|


(distortion)
Verse
-|----------------------------------------|
-|----------------------------------------|
-|------------------3---------------------|
-|------2---3---5------5-----3-5-3-2------|
-|----------------------------------------|
-|--0-0---0---0---0--0---0----------------|

-|----------------------------|
-|----------------------------|
-|----------------------------|
-|--------------------9-8-----|
-|------------------------8~~-|
-|--6-6-7-6-9-6-7-6-----------|

-|----------------------------------------|
-|----------------------------------------|
-|------------------3---------------------|
-|------2---3---5------5-----3-5-3-2------|
-|----------------------------------------|
-|--0-0---0---0---0--0---0----------------|

-|----------------------------|
-|----------------------------|
-|----------------------------|
-|--------------------6-5-----|
-|------------------------5~~-|
-|--3-3-4-3-6-3-4-3-----------|   play all that twice then..

-|----------------------------|
-|--------------------9-8-----|
-|------------------------7---|
-|--5-5-6-5-8-5-6-5-----------|
-|----------------------------|
-|----------------------------|

chorus
-|----------------------------|
-|----------------------------|
-|----------------------------|
-|--7---10---6---3------------|
-|----------------------------|
-|--5---8----4---1------------| x3

-|----------------------------|
-|----------------------------|
-|----------------------------|
-|--3---2-2--3----------------|
-|--3---2-2--3----------------|
-|--1---0-0--1----------------|

bridge
-|------------------------------|
-|------------------------------|
-|------------------------------| 1st guitar
-|------------------------------|
-|------------------------------|
-|--0-0-0-0-0--0----------------| x8

-|------------------------------|
-|------------------------------|
-|------------------------------| 2nd guitar
-|------------------------------|
-|------------------------------|
-|--0-------------0-0-0-0-0--0--| x8

                                            _
-|--------------------------------------     |
-|--------------------------------------     |
-|--------------------------------------     |
-|---------4-2-4---------4-2-4----------     |
-|-----------------------------0-3-0-3--     |
-|--2-3-2---------2-3-2-----------------x3   |
                                            x2
-|--------------------------------           |
-|--------------------------------           |
-|------------------------4^^-----           |
-|---------4-2-4------------------           |
-|---------------/7--3-2----------           |
-|--2-3-2-------------------------           |
                                            -

-|------------------------------------------------|
-|-------------------15---------18-17-15----------|
-|------16-17-16-14--------17-16--------17-16-14--|
-|----14-----------17-----------------------------|
-|--12--------------------------------------------|
-|------------------------------------------------| x2

-|------------------------------------------------|
-|------------------15--------18-17-15------------|
-|----17--17-16-14-------17-16--------17-16-14----|
-|----------------17------------------------------|
-|------------------------------------------------|
-|--13--------------------------------------------| x2

-|------------------5-6-5-6----------|
-|--5-6-5-6-5-6-5-6---------6-8-6-8--|
-|-----------------------------------|
-|-----------------------------------|
-|-----------------------------------|
-|-----------------------------------|x4

-|------------------------------------------------|
-|-------------------15---------18-17-15----------|
-|------16-17-16-14--------17-16--------17-16-14--|
-|----14-----------17-----------------------------|
-|--12--------------------------------------------|
-|------------------------------------------------| x2

-|------------------------------------------------|
-|------------------15--------18-17-15------------|
-|----17--17-16-14-------17-16--------17-16-14----|
-|----------------17------------------------------|
-|------------------------------------------------|
-|--13--------------------------------------------| x2

-|--------------------------12-13-12-13--------------|
-|--12-13-12-13-12-13-12-13-------------13-15-13-15--|
-|---------------------------------------------------|
-|---------------------------------------------------|
-|---------------------------------------------------|
-|---------------------------------------------------|x4

sorry thts as far as i got. :/
            
Submit corrections

comments powered by Disqus
↑ Back to top | Machine Head Tabs for Aesthetics Of Hate. Lyrics for acoustic guitar and electric guitar. Tablatures and chords are parodies/interpretations of the original songs. You may use it for private study, scholarship, research or language learning purposes only