» » »

Machine Head, From This Day Tabs (ver.1)

Artists:  A B C D E F G H I J K L M N O P Q R S T U V W X Y Z # 

From This Day Tabs (ver.1)

Machine Head Tabs
Rating:
0/5 (0 votes)
From This Day lessons Tabs too difficult? Try these video lessons and learn fast
                Standard tuning E,B,G,D,A,E

COOL SONG ILL HAVE TABS FOR THE NEW CD "SUPERCHARGER" WHNE IT COMES OUT.
/ - Slide
~ - slight bend & vibrato
x - left hand string mute


Intro ( Auto Wah ) Guitar 2 joins in on 2nd time with F# .
E|---------------------------------------------------------------------|
B|------------------------------4~------------------------------7~-----|
G|-----5-4---4-3------5-4---4-3--------5-4---4-3------5-4---4----------|
D|--2------5-----4--2-----5----------2-----5-----4--2-----5------------|
A|--2---------------2----------------2--------------2------------------|
D|--2---------------2----------------2--------------2------------------| 2x

after that:  Guitar 1 ( Auto Wah w/ Volume Pedal )
E|---------------------------------------------------------------------------------------|
B|--------------------------------------4~-----------------------------------------7~----|
G|--------5-4----4-3-2---------5-4---4-3------------5-4----4-3-2--------5-4----4---------|
D|--2-2-2------5--------2-2-2------5----------2-2-2------5--------2-2-2------5-----------|
A|--2-2-2---------------2-2-2-----------------2-2-2---------------2-2-2------------------|
D|--2-2-2---------------2-2-2-----------------2-2-2---------------2-2-2------------------|
	
Guitar 2:
D:--2-2-2---------------2-2-2----------------2-2-2---------------2-2-2------------------
A:--2-2-2---------------2-2-2----------------2-2-2---------------2-2-2------------------
D:--2-2-2---------------2-2-2----------------2-2-2---------------2-2-2------------------


iNTRO Part 2 :
E|-----------------------------|--------------------|
B|-----------------------------|--------------------|
G|---------------------4-4-4---|----4-2----2--------|
D|--4-0-0-4-0-0-4-0-0--4-4-4---|--------4----4-3-2--|
A|--4-0-0-4-0-0-4-0-0--2-2-2---|--2-----------------|
D|--2-0-0-2-0-0-2-0-0----------|--------------------|
   note: Guitar 2 and 1           note: guitar 1


                                          
Verse 1
E|--------------|			 E|---------------| then
B|--------------| <~~~Guitar 1		 B|---------------| B|---88889090909090909---
G|--------------| 	                 G|--3-2-----5-4--| G|---88888888888888888---
D|--2----2-x-2--|                        D|---------------|
A|--2----2-x-2--| 	Guitar 2~~~~>    A|---------------|
D|--2----2-x-2--|  			 D|---------------|
                                NOte: Gtr.2 use graphic eq and digital delay with alot of mix.

Chorus
E|-----------------------------------------------------------------------------------|
B|-----------------------------------------------------------------------------------|
G|-----------------------------------------------------------------------------------|
D|--44444444444444-777777777777-99999999999-101010101010101010/111111111-------------|
A|--44444444444444-777777777777-99999999999-888888888888888888/111111111-------------|
D|--22222222222222-555555555555-77777777777-888888888888888888/99999999--------------|


Verse 2
E|-------------------------| 	 	E|--------------|
B|-------------------------| 	 	B|--------------|
G|----4-3-4-3-4-3-4-3-3-5--| 	 	G|--------------|
D|--2----------------------| 	 	D|--2----2-x-2--|
A|--2----------------------| 	 	A|--2----2-x-2--|
D|--2----------------------| 2x 	D|--2----2-x-2--| 4x 

E|-------------------|
B|-------------------|
G|------4-3-----3-5--|
D|--2-2-----2-2------|
A|--2-2-----2-2------|
D|--2-2-----2-2------| Using Delay and graphic eq


Chorus ( Same )


Post-chorus
E|-----------------|
B|-----------------|
G|--2-2-2-2-2-2-2--|  <~~Alot of fx ( TRY a hevay flanger pedal , graphic eq , delay , death metal dist.)
D|-----------------|
A|-----------------|
D|-----------------|

Bridge            
E|-----------|   |--141414141414141414141414--99999999-101010101010--1313131313-/-3-5-------|    
B|-----------|   |-------------------------------------101010101010--1313131313-/-3-5-------|
G|-----------|	                  /	note: play with effects i said to try to use before. 
D|--2--4--5--|      Gtr .2   ~~~~~		     
A|--2--4--5--|		       
D|--0--2--3--| <~~~Gtr.1 



Gutiars 1 & 2 play intro


Chorus :  play the fisrt chord  pause , and start normally on the 2nd chord


End
E|------------------------|
B|------------------------|
G|------------------------|
D|--7-5-4-xxxxxxxx-5-7-4--|
A|--7-5-4-xxxxxxxx-5-7-4--|
D|--5-3-2-xxxxxxxx-3-5-2--|
            
Submit corrections

comments powered by Disqus
↑ Back to top | Machine Head Tabs for From This Day. Lyrics for acoustic guitar and electric guitar. Tablatures and chords are parodies/interpretations of the original songs. You may use it for private study, scholarship, research or language learning purposes only