» » »

Machine Head, Aesthetics Of Hate Bass tabs (ver.1)

Artists:  A B C D E F G H I J K L M N O P Q R S T U V W X Y Z # 

Aesthetics Of Hate Bass tabs (ver.1)

Machine Head Tabs
Rating:
4/5 (5 votes)
Aesthetics Of Hate lessons Tabs too difficult? Try these video lessons and learn fast
                -------------------------------------------------------------------------------
			     SONG NAME - Band Name
-------------------------------------------------------------------------------


Tuning: Standard D
Guitar Intro: Then....

F|--------------------------------------------------------|
C|--------------------------------------------------------|
G|--------------------------------------------------------|
D|-00-----4~----------------------------------------------|

Verse x 1
F|--------------------------------------------------------|
C|--------------------------------------------------------|
G|--------------------------------------------------------|
D|--00---6666666666666666--00---33333333333333333---------|



F|------------------------------------------------------------------------|
C|------------------------------------------------------------------------|
G|------------------------------------------------------------------------|
D|-00-0-0-0-0-0-00-6666666666666666-12/-0000000000000000-3333333333333333-|


Chorus x1
F|-----------------------------------------------------------------------|
C|-----------------------------------------------------------------------|
G|-----------------------------------------------------------------------|
D|-5555-8888-4444-1111-5555-8888-4444-1111-5555-8888-4444-1111-0-1-0-4-0-|


Post Chorus x1
F|--------------------------------------------------------|
C|--------------------------------------------------------|
G|--------------------------------------------------------|
D|--12/---------------------------------------------------|


Verse
Verse x 1
F|--------------------------------------------------------|
C|--------------------------------------------------------|
G|--------------------------------------------------------|
D|--00---6666666666666666--00---33333333333333333---------|



F|------------------------------------------------------------------------|
C|------------------------------------------------------------------------|
G|------------------------------------------------------------------------|
D|-00-0-0-0-0-0-00-6666666666666666-12/-0000000000000000-3333333333333333-|

Chorusx1
F|-----------------------------------------------------------------------|
C|-----------------------------------------------------------------------|
G|-----------------------------------------------------------------------|
D|-5555-8888-4444-1111-5555-8888-4444-1111-5555-8888-4444-1111-0-1-0-4-0-|

Rest a bit
Post chorus 2 (x3)
F|--------------------------------------------------------|
C|--------------------------------------------------------|
G|--------------------------------------------------------|
D|-12/-000000--000000--000000-0000-12/--------------------|


RIFF!!! (Pulloffs of Hate)(x2)
F|--------------------------------------------------------------------|
C|--------4p2h4-------4p2h4-----------------4p2h4-------4p2h4---------|
G|---------------------------0h3-0h3--------------------------0h3-0h3-|
D|--2h3p2-------2h3p2-----------------2h3p2-------2h3p2---------------|



F|-------------------------------------------------------4--------|
C|--------4p2h4-------4p2h4----------------4p2h4--4---------------|
G|---------------------------0h3-0h3----------------3-2-----------|
D|--2h3p2-------2h3p2----------------2h3p2------------------------|


Solo Backing A x 1
F|---------------------------------------------------------------------|
C|---------------------------------------------------------------------|
G|---------------------------------------------------------------------|
D|-555555555555555555555555555555--111111111111111111111111111111111---|

Solo Backing B x 1
F|---------------------------------------------------------------------|
C|---------------------------------------------------------------------|
G|---------------------------------------------------------------------|
D|-0000000000001111-0000000000001111-0000000000001111-0000000000001111-|


Solo Backing A x 1
F|---------------------------------------------------------------------|
C|---------------------------------------------------------------------|
G|---------------------------------------------------------------------|
D|-555555555555555555555555555555--111111111111111111111111111111111---|

Solo Backing C
F|----------------------------------------------------------------------|
C|----------------------------------------------------------------------|
G|----------------------------------------------------------------------|
D|-1111111111110000-11111111111110000-1111111111110000-1111111111110000-|


Solo Backing D x1
F|--------------------------------------------------------------------|
C|--------------------------------------------------------------------|
G|--------------------------------------------------------------------|
D|--55555555555555555555555555555555-11111111111100001111111111110000-|

Solo Backing B x1
F|-----------------------------------------------------------------------|
C|-----------------------------------------------------------------------|
G|-----------------------------------------------------------------------|
D|--0000000000001111-0000000000001111-0000000000001111-00000000000001111-|

F|---------------------------------------------------------------------|
C|---------------------------------------------------------------------|
G|---------------------------------------------------------------------|
D|--55555555555555555555555555555555-111111111111111111111111111111111-|

Solo Backing B x1
F|-----------------------------------------------------------------------|
C|-----------------------------------------------------------------------|
G|-----------------------------------------------------------------------|
D|--0000000000001111-0000000000001111-0000000000001111-00000000000001111-|

Odd Chorus
F|--------------------------------------------------------------------------|
C|--------------------------------------------------------------------------|
G|--------------------------------------------------------------------------|
D|--55555555-88888888-44444444-11111111-55555555-88888888-44444444-11111111-|

F|---------------------------------------------------------------------------------|
C|---------------------------------------------------------------------------------|
G|---------------------------------------------------------------------------------|
D|--5555-8888-4444-1111-5555-8888-4444-111-5-8-4-1-5-8-4-1-55-88-44-11-55-88-44-11-|

Post Chorus
F|--------------------------------------------------------|
C|--------------------------------------------------------|
G|--------------------------------------------------------|
D|-0-000-1-0-4--00-0-0-0-0-0-00-66-6-6-6-6-6-6-6----------|

F|--------------------------------------------------------|
C|--------------------------------------------------------|
G|--------------------------------------------------------|
D|--3333333333333333-6666666666666666/--------------------|

Then Heavy Riff x 16
F|--------------------------------------------------------|
C|--------------------------------------------------------|
G|--------------------------------------------------------|
D|-0-0-0-1-3-6\3-1/3-0------------------------------------|

End On
F|--------------------------------------------------------|
C|--------------------------------------------------------|
G|--------------------------------------------------------|
D|-0~-----------------------------------------------------|

============================================

Nice and fun to play. I Made it Intermediate because no beginner is gonna be able
to play The H/o P/o Riff in the bridge. 
            
Submit corrections

comments powered by Disqus
↑ Back to top | Machine Head Bass for Aesthetics Of Hate. Lyrics for acoustic guitar and electric guitar. Tablatures and chords are parodies/interpretations of the original songs. You may use it for private study, scholarship, research or language learning purposes only