» » »

05 - Hit The Floor Tabs (ver.2)

Artists:  A B C D E F G H I J K L M N O P Q R S T U V W X Y Z # 

05 - Hit The Floor Tabs (ver.2)

Linkin Park
Rating:
0/5 (0 votes)

Hard to play? Try these video lessons and learn fast.
                PROPS GO TO: Brainyboy

Tuning: Dropped D and tuned down 1/2 step (Db Ab Db Gb Bb Eb)

INTRO
    
eb----------------------------------------------------------------------------------    
Bb----------------------------------------------------------------------------------
Gb----------------------------------------------------------------------------------
Db----------------------------------------------------------0-888-7---0-4-0-111-0---
Ab----------------------------------------------------------0-888-7---0-4-0-111-0---    
Db--0-4-0-111-0---0-4-0-111-0---0-4-0-111-0---0-4-0-111-0---0-888-7---0-4-0-111-0---
   p.m................................................... 

eB----------------------------------------------------------------------------------
Bb----------------------------------------------------------------------------------
Gb----------------------------------------------------------------------------------
Db--0-888-7---0-4-0-111-0--0-888-7---0-4-0-111-0--0-888-7---0-4-0-111-0-------------
Ab--0-888-7---0-4-0-111-0--0-888-7---0-4-0-111-0--0-888-7---0-4-0-111-0-------------
Db--0-888-7---0-4-0-111-0--0-888-7---0-4-0-111-0--0-888-7---0-4-0-111-0-------------

VERSE

eB--------------|
Bb--------------|
Gb--------------|
Db--------------| 8X  
Ab--------------|
Db-0-4-0-111-0--|
  p.m.........
PRE-CHORUS

eB----------|
Bb----------|
Gb----------|
Db-0-888-7--|
Ab-0-888-7--|
Db-0-888-7--|

CHORUS
                     end chorus on
eB--------------|   |------------|
Bb--------------|   |------------|
Gb--------------|   |------------|
Db-0-4-0-111-0--|4X |--0-888--7--|
Ab-0-4-0-111-0--|   |--0-888--7--|
Db-0-4-0-111-0--|   |--0-888--7--|

BRIDGE

eB--------------------------|  |--------------|
Bb--------------------------|  |--------------|
Gb--------------------------|  |--------------|
Db--0-0-0-0-03--0-0-0-0-01--|2X|--------------|4X
Ab--0-0-0-0-03--0-0-0-0-01--|  |--------------|
Db--0-0-0-0-03--0-0-0-0-01--|  |-0-4-0-111-0--|
                                p.m..........

OUTRO

eB--------------------------------------------------|
Bb--------------------------------------------------|
Gb--------------------------------------------------|
Db--0-0-0-0-03--0-0-0-0-01--0-4-0-111-0-0-4-0-111-0-|
Ab--0-0-0-0-03--0-0-0-0-01--0-4-0-111-0-0-4-0-111-0-|
Db--0-0-0-0-03--0-0-0-0-01--0-4-0-111-0-0-4-0-111-0-|

ORDER:
INTRO
VERSE
PRE-CHORUS
CHORUS
VERSE
PRE-CHORUS
CHORUS
BRIDGE
CHORUS
OUTRO

THIS SONG IS REALLY EASY. IT'S BASICALLY THE SAME RIFF OVER AND OVER AND IT SOUNDS GREAT WITH LOTS OF DISTORTION. HAVE FUN!
            
Hard to play? Try these video lessons and learn fast. | Correct




comments powered by Disqus
↑ Back to top | Tablatures and chords are parodies/interpretations of the original songs. You may use it for private study, scholarship, research or language learning purposes only