>
 >
In The End

In The End Guitar Tabs

Linkin Park - In The End chords, tabs, tablatures, lyrics

Guitar lessons | Add/correct | Request | Top 50 tabs Artists:  A B C D E F G H I J K L M N O P Q R S T U V W X Y Z 0-9

In The End Guitar Tabs – Linkin Park

CD, Sheet music, Poster

Do you like In The End? Share with your friends now
Bass TabsBass Tabs v2Bass Tabs v3Bass Tabs v4ChordsChords v2Chords v3Chords v4Drum TabsDrum Tabs v2Drum Tabs v3Drum Tabs v4TabsTabs v2Tabs v3Tabs v4Tabs v5Tabs v6Tabs v7Tabs v8Ukulele
Linkin Park-In The End
Drop D and down 1/2 step.
*= harmonics
Bass:   7
Mid:    3
Treble: 5
Gain:   11 (hehe) 
                        3x
Eb|---------------------|-|---------------------|
Bb|---------------------|-|---------------------|
Gb|---------------------|0|---------------------|
Db|---9-9---------------|0|---9-9---------------|
Ab|-7-----10-9-9-9-9h10-|-|-7-----10-9----------|
Db|---------------------|-|---------------------|


(It starts with why)
		One thing,   I  don't  know  why,      it doesn't  even matter  how  hard  you try
               (One thing)
Eb|---------------------|-|---------------------|-|----7----------------|-|---------------------|-|
Bb|-------------7-------|-|---------------------|-|---------------------|-|---------------------|-|
Gb|--------5------------|-|---------------------|-|---------------------|-|---------------------|-|
Db|---------------------|-|---------------------|-|---------------------|-|---------------------|-|
Ab|---------------------|-|---------------------|-|---------------------|-|---------------------|-|
Db|--------*----*-------|-|---------------------|-|----*----------------|-|---------------------|-|

                                                                           
            Keep that in mind,i designed this rhyme to explain   in   due    time,
                                                                                  (time)
Eb|---------------------|-|---------------------|-|----12---------------|-|---------------------|-|
Bb|-------------7-------|-|---------------------|-|---------------------|-|---------------------|-|
Gb|--------5------------|-|---------------------|-|---------------------|-|---------------------|-|
Db|---------------------|-|---------------------|-|---------------------|-|---------------------|-|
Ab|---------------------|-|---------------------|-|---------------------|-|---------------------|-|
Db|--------*----*-------|-|---------------------|-|----*----------------|-|---------------------|-|

  (all~~~~i~~~~know~~~~)
   all    i    know time is a valuable thing, watch it fly by as the pendulum swings,
     (all  i    know)        (valuable thing)
Eb|---------------------|-|---------------------|-|----7----------------|-|---------------------|-|
Bb|-------------7-------|-|---------------------|-|---------------------|-|---------------------|-|
Gb|--------5------------|-|---------------------|-|---------------------|-|---------------------|-|
Db|---------------------|-|---------------------|-|---------------------|-|---------------------|-|
Ab|---------------------|-|---------------------|-|---------------------|-|---------------------|-|
Db|--------*----*-------|-|---------------------|-|----*----------------|-|---------------------|-|


              watch it countdown to the end of the day,
					     the clock tickes life away
                                                (clock tickes life away)
Eb|---------------------|-|---------------------|-|----12---------------|-|---------------------|-|
Bb|-------------7-------|-|---------------------|-|---------------------|-|---------------------|-|
Gb|--------5------------|-|---------------------|-|---------------------|-|---------------------|-|
Db|---------------------|-|---------------------|-|---------------------|-|---------------------|-|
Ab|---------------------|-|---------------------|-|---------------------|-|---------------------|-|
Db|--------*----*-------|-|---------------------|-|----*----------------|-|---------------------|-|

(It's~~so~~un-real~~)
 It's  so  un-real   didn't    look   out    below,    watch the  time go right out the window
  (It's  so  un-real)                       (below)                      (right out the window)
Eb|---------------------|-|---------------------|-|----7----------------|-|---------------------|-|
Bb|-------------7-------|-|---------------------|-|---------------------|-|---------------------|-|
Gb|--------5------------|-|---------------------|-|---------------------|-|---------------------|-|
Db|---------------------|-|---------------------|-|---------------------|-|---------------------|-|
Ab|---------------------|-|---------------------|-|---------------------|-|---------------------|-|
Db|--------*----*-------|-|---------------------|-|----*----------------|-|---------------------|-|

Eb|---------------------|-|---------------------|-|---------------------|-|---------------------|-|
Bb|---------------------|-|---------------------|-|---------------------|-|---------------------|-|
Gb|---------------------|-|---------------------|-|---------------------|-|---------------------|-|
Db|---9-9---------------|-|---9-9---------------|-|---9-9---------------|-|---9-9---------------|-|
Ab|-7-----10-9-9-9-9h10-|-|-7-----10-9-9--9h10--|-|-7-----10-9-9-9-9h10-|-|-7-----10-9-9-9-9h10-|-|
Db|---------------------|-|---------------------|-|---------------------|-|---------------------|-|




              trying to hold on, i didn't even know, i wasted  it   all,  just  to 
                                  (didn't even know)
Eb|---------------------|-|---------------------|-|----12---------------|-|---------------------|-|
Bb|-------------7-------|-|---------------------|-|---------------------|-|---------------------|-|
Gb|--------5------------|-|---------------------|-|---------------------|-|---------------------|-|
Db|---------------------|-|---------------------|-|---------------------|-|---------------------|-|
Ab|---------------------|-|---------------------|-|---------------------|-|---------------------|-|
Db|--------*----*-------|-|---------------------|-|----*----------------|-|---------------------|-|

Eb|---------------------|-|---------------------|-|---------------------|-|---------------------|-|
Bb|---------------------|-|---------------------|-|---------------------|-|---------------------|-|
Gb|---------------------|-|---------------------|-|---------------------|-|---------------------|-|
Db|---9-9---------------|-|---9-9---------------|-|---9-9---------------|-|---9-9---------------|-|
Ab|-7-----10-9-9-9-9h10-|-|-7-----10-9-9--9h10--|-|-7-----10-9-9-9-9h10-|-|-7-----10-9-9-9-9h10-|-|
Db|---------------------|-|---------------------|-|---------------------|-|---------------------|-|

(Watch~~you~~go~~~~~~~~~~~~~~~~~~~~~~~~~~~~~~~~~~~~~~~~~~~~~~~~~~~~~~~~~~~~~~~~~~~~~~~~~~~~~~~~~~~~
 watch  you  go     I kept everything inside and even  though i tried, it all fell apart
  (watch  you  go)                                             (tried, it all fell apart)
Eb|---------------------|-|---------------------|-|----7----------------|-|---------------------|-|
Bb|-------------7-------|-|---------------------|-|---------------------|-|---------------------|-|
Gb|--------5------------|-|---------------------|-|---------------------|-|---------------------|-|
Db|---------------------|-|---------------------|-|---------------------|-|---------------------|-|
Ab|---------------------|-|---------------------|-|---------------------|-|---------------------|-|
Db|--------*----*-------|-|---------------------|-|----*----------------|-|---------------------|-|

Eb|---------------------|-|---------------------|-|---------------------|-|---------------------|-|
Bb|---------------------|-|---------------------|-|---------------------|-|---------------------|-|
Gb|---------------------|-|---------------------|-|---------------------|-|---------------------|-|
Db|---9-9---------------|-|---9-9---------------|-|---9-9---------------|-|---9-9---------------|-|
Ab|-7-----10-9-9-9-9h10-|-|-7-----10-9-9--9h10--|-|-7-----10-9-9-9-9h10-|-|-7-----10-9-9-9-9h10-|-|
Db|---------------------|-|---------------------|-|---------------------|-|---------------------|-|

~~~~~~~~~~~~~~~~~~~~~~~~~~~~~~~~~~~~~~~~~~~~~~~~~~~~~~~~~~~~~~~~~~~~~~~~~~~~~~(i tried so
                what it meant to me will eventually be a memory of a time when i tried     so 

Eb|---------------------|-|---------------------|-|----12---------------|-|---------------------|-|
Bb|-------------7-------|-|---------------------|-|---------------------|-|---------------------|-|
Gb|--------5------------|-|---------------------|-|---------------------|-|-------------------5-|-|
Db|---------------------|-|---------------------|-|---------------------|-|---------------------|-|
Ab|---------------------|-|---------------------|-|---------------------|-|---------------------|-|
Db|--------*----*-------|-|---------------------|-|----*----------------|-|-------------------*-|-|

Eb|---------------------|-|---------------------|-|---------------------|-|---------------------|-|
Bb|---------------------|-|---------------------|-|---------------------|-|---------------------|-|
Gb|---------------------|-|---------------------|-|---------------------|-|---------------------|-|
Db|---9-9---------------|-|---9-9---------------|-|---9-9---------------|-|---9-9---------------|-|
Ab|-7-----10-9-9-9-9h10-|-|-7-----10-9-9--9h10--|-|-7-----10-9-9-9-9h10-|-|-7-----10-9-9-9-9h10-|-|
Db|---------------------|-|---------------------|-|---------------------|-|---------------------|-|

    hard,   and   got   so  far,    but   in   the  end, it doesn't even matter,   i   had   to     
    hard

Eb|---------------------|-|---------------------|-|---------------------|-|---------------------|-|
Bb|---------------------|-|---------------------|-|---------------------|-|---------------------|-|
Gb|---------------------|-|---------------------|-|---------------------|-|-5---------------5---|-|
Db|-2-------------------|-|-5-------------------|-|-0-------------------|-|-5---------------5-0-|-|
Ab|-2-------------------|-|-5-------------------|-|-0-------------------|-|-3---------------3-0-|-|
Db|-2-------------------|-|-5-------------------|-|-0-------------------|-|-------------------0-|-|

Eb|---------------------|-|---------------------|-|---------------------|-|---------------------|-|
Bb|---------------------|-|---------------------|-|---------------------|-|---------------------|-|
Gb|---------------------|-|---------------------|-|-7-------------------|-|-5---------------5---|-|
Db|-2-------------------|-|-5-------------------|-|-7-------------------|-|-5---------------5-0-|-|
Ab|-2-------------------|-|-5-------------------|-|-5-------------------|-|-3---------------3-0-|-|
Db|-2-------------------|-|-5-------------------|-|-0-------------------|-|-------------------0-|-|

Eb|---------------------|-|-7-------------------|-|---------------------|-|-12------------------|-|
Bb|-7-------------------|-|---------------------|-|-7-------------------|-|---------------------|-|
Gb|---------------------|-|-------------------5-|-|---------------------|-|-------------------5-|-|
Db|---------------------|-|---------------------|-|---------------------|-|---------------------|-|
Ab|---------------------|-|---------------------|-|---------------------|-|---------------------|-|
Db|-*-------------------|-|-*-----------------*-|-|-*-------------------|-|-*-----------------*-|-|


    fall,  to   loose  it   all,    but   in   the  end, it doesn't even matter
   
Eb|---------------------|-|---------------------|-|---------------------|-|---------------------|-|
Bb|---------------------|-|---------------------|-|---------------------|-|---------------------|-|
Gb|---------------------|-|---------------------|-|---------------------|-|-5---------------5-4-|-|
Db|-2-------------------|-|-5-------------------|-|-0-------------------|-|-5---------------5-4-|-|
Ab|-2-------------------|-|-5-------------------|-|-0-------------------|-|-3---------------3-2-|-|
Db|-2-------------------|-|-5-------------------|-|-0-------------------|-|---------------------|-|

Eb|---------------------|-|---------------------|-|---------------------|-|---------------------|-|
Bb|---------------------|-|---------------------|-|---------------------|-|---------------------|-|
Gb|---------------------|-|---------------------|-|-7-------------------|-|-5---------------5-4-|-|
Db|-2-------------------|-|-5-------------------|-|-7-------------------|-|-5---------------5-4-|-|
Ab|-2-------------------|-|-5-------------------|-|-5-------------------|-|-3---------------3-2-|-|
Db|-2-------------------|-|-5-------------------|-|-0-------------------|-|---------------------|-|

Eb|---------------------|-|-7-------------------|-|---------------------|-|-12------------------|-|
Bb|-7-------------------|-|---------------------|-|-7-------------------|-|---------------------|-|
Gb|---------------------|-|-------------------5-|-|---------------------|-|---------------------|-|
Db|---------------------|-|---------------------|-|---------------------|-|---------------------|-|
Ab|---------------------|-|---------------------|-|---------------------|-|---------------------|-|
Db|-*-------------------|-|-*-----------------*-|-|-*-------------------|-|-*-------------------|-|



		One thing,   I  don't  know  why,      it doesn't  even matter  how  hard  you try
                                            (why)					      (try)
Eb|---------------------|-|---------------------|-|----7----------------|-|---------------------|-|
Bb|-------------7-------|-|---------------------|-|---------------------|-|---------------------|-|
Gb|--------5------------|-|---------------------|-|---------------------|-|---------------------|-|
Db|---------------------|-|---------------------|-|---------------------|-|---------------------|-|
Ab|---------------------|-|---------------------|-|---------------------|-|---------------------|-|
Db|--------*----*-------|-|---------------------|-|----*----------------|-|---------------------|-|



            Keep that in mind,i designed this rhyme to remind   myself   how,

Eb|---------------------|-|---------------------|-|----12---------------|-|---------------------|-|
Bb|-------------7-------|-|---------------------|-|---------------------|-|---------------------|-|
Gb|--------5------------|-|---------------------|-|---------------------|-|---------------------|-|
Db|---------------------|-|---------------------|-|---------------------|-|---------------------|-|
Ab|---------------------|-|---------------------|-|---------------------|-|---------------------|-|
Db|--------*----*-------|-|---------------------|-|----*----------------|-|---------------------|-|



  (I~~tried~~so~~hard)
   I  tried  so  hard,inspite of the way you were mocking 
     (I tried so hard)                               me, i acted like i was part of your
Eb|---------------------|-|---------------------|-|----7----------------|-|---------------------|-|
Bb|-------------7-------|-|---------------------|-|---------------------|-|---------------------|-|
Gb|--------5------------|-|---------------------|-|---------------------|-|---------------------|-|
Db|---------------------|-|---------------------|-|---------------------|-|---------------------|-|
Ab|---------------------|-|---------------------|-|---------------------|-|---------------------|-|
Db|--------*----*-------|-|---------------------|-|----*----------------|-|---------------------|-|



      property, remembering all those times you fought 
                                                with me,  im  surprised   that   it
Eb|---------------------|-|---------------------|-|----12---------------|-|---------------------|-|
Bb|-------------7-------|-|---------------------|-|---------------------|-|---------------------|-|
Gb|--------5------------|-|---------------------|-|---------------------|-|---------------------|-|
Db|---------------------|-|---------------------|-|---------------------|-|---------------------|-|
Ab|---------------------|-|---------------------|-|---------------------|-|---------------------|-|
Db|--------*----*-------|-|---------------------|-|----*----------------|-|---------------------|-|



(Got~~so~~far)
(Got  so  far)    things aren't the way they were before,  you  wouldn't  even   recognize   me 
  (Got So  Far,   things aren't the way they were before)
Eb|---------------------|-|---------------------|-|----7----------------|-|---------------------|-|
Bb|-------------7-------|-|---------------------|-|---------------------|-|---------------------|-|
Gb|--------5------------|-|---------------------|-|---------------------|-|---------------------|-|
Db|---------------------|-|---------------------|-|---------------------|-|---------------------|-|
Ab|---------------------|-|---------------------|-|---------------------|-|---------------------|-|
Db|--------*----*-------|-|---------------------|-|----*----------------|-|---------------------|-|

Eb|---------------------|-|---------------------|-|---------------------|-|---------------------|-|
Bb|---------------------|-|---------------------|-|---------------------|-|---------------------|-|
Gb|---------------------|-|---------------------|-|---------------------|-|---------------------|-|
Db|---9-9---------------|-|---9-9---------------|-|---9-9---------------|-|---9-9---------------|-|
Ab|-7-----10-9-9-9-9h10-|-|-7-----10-9-9--9h10--|-|-7-----10-9-9-9-9h10-|-|-7-----10-9-9-9-9h10-|-|
Db|---------------------|-|---------------------|-|---------------------|-|---------------------|-|



         anymore, not that you knew me back then , but it  all  comes  back  to  me

Eb|---------------------|-|---------------------|-|----12---------------|-|---------------------|-|
Bb|-------------7-------|-|---------------------|-|---------------------|-|---------------------|-|
Gb|--------5------------|-|---------------------|-|---------------------|-|---------------------|-|
Db|---------------------|-|---------------------|-|---------------------|-|---------------------|-|
Ab|---------------------|-|---------------------|-|---------------------|-|---------------------|-|
Db|--------*----*-------|-|---------------------|-|----*----------------|-|---------------------|-|

Eb|---------------------|-|---------------------|-|---------------------|-|---------------------|-|
Bb|---------------------|-|---------------------|-|---------------------|-|---------------------|-|
Gb|---------------------|-|---------------------|-|---------------------|-|---------------------|-|
Db|---9-9---------------|-|---9-9---------------|-|---9-9---------------|-|---9-9---------------|-|
Ab|-7-----10-9-9-9-9h10-|-|-7-----10-9-9--9h10--|-|-7-----10-9-9-9-9h10-|-|-7-----10-9-9-9-9h10-|-|
Db|---------------------|-|---------------------|-|---------------------|-|---------------------|-|




(In~~~~the~~~~end~~~~~~~~~~~~~~~~~~~~~~~~~~~~~~~~~~~~~~~~~~~~~~~~~~~~~~~~~~~~~~~~~~~~~~~~~~~~~~~~~~
 In    the    end I kept everything inside and even  though i tried, it all fell apart
   (In   the    end)
Eb|---------------------|-|---------------------|-|----7----------------|-|---------------------|-|
Bb|-------------7-------|-|---------------------|-|---------------------|-|---------------------|-|
Gb|--------5------------|-|---------------------|-|---------------------|-|---------------------|-|
Db|---------------------|-|---------------------|-|---------------------|-|---------------------|-|
Ab|---------------------|-|---------------------|-|---------------------|-|---------------------|-|
Db|--------*----*-------|-|---------------------|-|----*----------------|-|---------------------|-|

Eb|---------------------|-|---------------------|-|---------------------|-|---------------------|-|
Bb|---------------------|-|---------------------|-|---------------------|-|---------------------|-|
Gb|---------------------|-|---------------------|-|---------------------|-|---------------------|-|
Db|---9-9---------------|-|---9-9---------------|-|---9-9---------------|-|---9-9---------------|-|
Ab|-7-----10-9-9-9-9h10-|-|-7-----10-9-9--9h10--|-|-7-----10-9-9-9-9h10-|-|-7-----10-9-9-9-9h10-|-|
Db|---------------------|-|---------------------|-|---------------------|-|---------------------|-|




~~~~~~~~~~~~~~~~~~~~~~~~~~~~~~~~~~~~~~~~~~~~~~~~~~~~~~~~~~~~~~~~~~~~~~~~~~~~~~(i tried so
                what it meant to me will eventually be a memory of a time when i tried     so 

Eb|---------------------|-|---------------------|-|----12---------------|-|---------------------|-|
Bb|-------------7-------|-|---------------------|-|---------------------|-|-------------------5-|-|
Gb|--------5------------|-|---------------------|-|---------------------|-|---------------------|-|
Db|---------------------|-|---------------------|-|---------------------|-|---------------------|-|
Ab|---------------------|-|---------------------|-|---------------------|-|---------------------|-|
Db|--------*----*-------|-|---------------------|-|----*----------------|-|-------------------*-|-|

Eb|---------------------|-|---------------------|-|---------------------|-|---------------------|-|
Bb|---------------------|-|---------------------|-|---------------------|-|---------------------|-|
Gb|---------------------|-|---------------------|-|---------------------|-|---------------------|-|
Db|---9-9---------------|-|---9-9---------------|-|---9-9---------------|-|---9-9---------------|-|
Ab|-7-----10-9-9-9-9h10-|-|-7-----10-9-9--9h10--|-|-7-----10-9-9-9-9h10-|-|-7-----10-9-9-9-9h10-|-|
Db|---------------------|-|---------------------|-|---------------------|-|---------------------|-|

    hard,   and   got   so  far,    but   in   the  end, it doesn't even matter,   i   had   to     
    hard

Eb|---------------------|-|---------------------|-|---------------------|-|---------------------|-|
Bb|---------------------|-|---------------------|-|---------------------|-|---------------------|-|
Gb|---------------------|-|---------------------|-|---------------------|-|-5---------------5---|-|
Db|-2-------------------|-|-5-------------------|-|-0-------------------|-|-5---------------5-0-|-|
Ab|-2-------------------|-|-5-------------------|-|-0-------------------|-|-3---------------3-0-|-|
Db|-2-------------------|-|-5-------------------|-|-0-------------------|-|-------------------0-|-|

Eb|---------------------|-|---------------------|-|---------------------|-|---------------------|-|
Bb|---------------------|-|---------------------|-|---------------------|-|---------------------|-|
Gb|---------------------|-|---------------------|-|-7-------------------|-|-5---------------5---|-|
Db|-2-------------------|-|-5-------------------|-|-7-------------------|-|-5---------------5-0-|-|
Ab|-2-------------------|-|-5-------------------|-|-5-------------------|-|-3---------------3-0-|-|
Db|-2-------------------|-|-5-------------------|-|-0-------------------|-|-------------------0-|-|

Eb|---------------------|-|-7-------------------|-|---------------------|-|-12------------------|-|
Bb|-7-------------------|-|---------------------|-|-7-------------------|-|---------------------|-|
Gb|---------------------|-|-------------------5-|-|---------------------|-|-------------------5-|-|
Db|---------------------|-|---------------------|-|---------------------|-|---------------------|-|
Ab|---------------------|-|---------------------|-|---------------------|-|---------------------|-|
Db|-*-------------------|-|-*-----------------*-|-|-*-------------------|-|-*-----------------*-|-|




    fall,  to   loose  it   all,    but   in   the  end, it doesn't even matter,       i've put my 
   
Eb|---------------------|-|---------------------|-|---------------------|-|---------------------|-|
Bb|---------------------|-|---------------------|-|---------------------|-|---------------------|-|
Gb|---------------------|-|---------------------|-|---------------------|-|-5--------5----------|-|
Db|-2-------------------|-|-5-------------------|-|-0-------------------|-|-5--------5----------|-|
Ab|-2-------------------|-|-5-------------------|-|-0-------------------|-|-3--------3----------|-|
Db|-2-------------------|-|-5-------------------|-|-0-------------------|-|---------------------|-|

Eb|---------------------|-|---------------------|-|---------------------|-|---------------------|-|
Bb|---------------------|-|---------------------|-|---------------------|-|---------------------|-|
Gb|---------------------|-|---------------------|-|-7-------------------|-|-5--------5----------|-|
Db|-2-------------------|-|-5-------------------|-|-7-------------------|-|-5--------5----------|-|
Ab|-2-------------------|-|-5-------------------|-|-5-------------------|-|-3--------3----------|-|
Db|-2-------------------|-|-5-------------------|-|-0-------------------|-|---------------------|-|

Eb|---------------------|-|-7-------------------|-|---------------------|-|-12------------------|-|
Bb|-7-------------------|-|---------------------|-|-7-------------------|-|---------------------|-|
Gb|---------------------|-|-------------------5-|-|---------------------|-|---------------------|-|
Db|---------------------|-|---------------------|-|---------------------|-|---------------------|-|
Ab|---------------------|-|---------------------|-|---------------------|-|---------------------|-|
Db|-*-------------------|-|-*-----------------*-|-|-*-------------------|-|-*-------------------|-|


   trust,in you,pushed as far as i can go,for all this,
                                   there's only one thing you should know              I've put my
Eb|---------------------|-|---------------------|-|---------------------|-|---------------------|-|
Bb|---------------------|-|---------------------|-|---------------------|-|---------------------|-|
Gb|---------------------|-|---------------------|-|---------------------|-|---------------------|-|
Db|---9-9---------------|-|---9-9---------------|-|---9-9---------------|-|---9-9---------------|-|
Ab|-7-----10-9-9-9-9h10-|-|-7-----10-9-9--9h10--|-|-7-----10-9-9-9-9h10-|-|-7-----10-9----------|-|
Db|---------------------|-|---------------------|-|---------------------|-|---------------------|-|



  trust,          in        you,       pushed as    far     as     i    can go,    for all this, 

Eb|---------------------|-|---------------------|-|---------------------|-|---------------------|-|
Bb|---------------------|-|---------------------|-|---------------------|-|---------------------|-|
Gb|---------------------|-|---------------------|-|---------------------|-|-5-------------------|-|
Db|-2-------------------|-|-5-------------------|-|-0-------------------|-|-5-----------------0-|-|
Ab|-2-------------------|-|-5-------------------|-|-0-------------------|-|-3-----------------0-|-|
Db|-2-------------------|-|-5-------------------|-|-0-------------------|-|-------------------0-|-|

Eb|---------------------|-|---------------------|-|---------------------|-|---------------------|-|
Bb|---------------------|-|---------------------|-|---------------------|-|---------------------|-|
Gb|---------------------|-|---------------------|-|-7-------------------|-|-5-------------------|-|
Db|-2-------------------|-|-5-------------------|-|-7-------------------|-|-5-----------------0-|-|
Ab|-2-------------------|-|-5-------------------|-|-5-------------------|-|-3-----------------0-|-|
Db|-2-------------------|-|-5-------------------|-|-0-------------------|-|-------------------0-|-|



           there's  only   one thing you  should   know                         I tried so 

Eb|---------------------|-|---------------------|-|---------------------|-|---------------------|-|
Bb|---------------------|-|---------------------|-|---------------------|-|---------------------|-|
Gb|---------------------|-|---------------------|-|---------------------|-|-5-------------------|-|
Db|-2-------------------|-|-5-------------------|-|-0-------------------|-|-5-------------------|-|
Ab|-2-------------------|-|-5-------------------|-|-0-------------------|-|-3-------------------|-|
Db|-2-------------------|-|-5-------------------|-|-0-------------------|-|---------------------|-|

Eb|---------------------|-|---------------------|-|---------------------|-|---------------------|-|
Bb|---------------------|-|---------------------|-|---------------------|-|---------------------|-|
Gb|---------------------|-|---------------------|-|-7-------------------|-|-5-------------------|-|
Db|-2-------------------|-|-5-------------------|-|-7-------------------|-|-5-------------------|-|
Ab|-2-------------------|-|-5-------------------|-|-5-------------------|-|-3-------------------|-|
Db|-2-------------------|-|-5-------------------|-|-0-------------------|-|---------------------|-|
  
   
    hard,   and   got   so  far,    but   in   the  end, it doesn't even matter,   i   had   to     
   

Eb|---------------------|-|---------------------|-|---------------------|-|---------------------|-|
Bb|---------------------|-|---------------------|-|---------------------|-|---------------------|-|
Gb|---------------------|-|---------------------|-|---------------------|-|-5---------------5---|-|
Db|-2-------------------|-|-5-------------------|-|-0-------------------|-|-5---------------5-0-|-|
Ab|-2-------------------|-|-5-------------------|-|-0-------------------|-|-3---------------3-0-|-|
Db|-2-------------------|-|-5-------------------|-|-0-------------------|-|-------------------0-|-|

Eb|---------------------|-|---------------------|-|---------------------|-|---------------------|-|
Bb|---------------------|-|---------------------|-|---------------------|-|---------------------|-|
Gb|---------------------|-|---------------------|-|-7-------------------|-|-5---------------5---|-|
Db|-2-------------------|-|-5-------------------|-|-7-------------------|-|-5---------------5-0-|-|
Ab|-2-------------------|-|-5-------------------|-|-5-------------------|-|-3---------------3-0-|-|
Db|-2-------------------|-|-5-------------------|-|-0-------------------|-|-------------------0-|-|

Eb|---------------------|-|-7-------------------|-|---------------------|-|-12------------------|-|
Bb|-7-------------------|-|---------------------|-|-7-------------------|-|---------------------|-|
Gb|---------------------|-|-------------------5-|-|---------------------|-|-------------------5-|-|
Db|---------------------|-|---------------------|-|---------------------|-|---------------------|-|
Ab|---------------------|-|---------------------|-|---------------------|-|---------------------|-|
Db|-*-------------------|-|-*-----------------*-|-|-*-------------------|-|-*-----------------*-|-|



    fall,  to   loose  it   all,    but   in   the  end, it doesn't even matter
   
Eb|---------------------|-|---------------------|-|---------------------|-|---------------------|-|
Bb|---------------------|-|---------------------|-|---------------------|-|---------------------|-|
Gb|---------------------|-|---------------------|-|---------------------|-|-5---------------5-4-|-|
Db|-2-------------------|-|-5-------------------|-|-0-------------------|-|-5---------------5-4-|-|
Ab|-2-------------------|-|-5-------------------|-|-0-------------------|-|-3---------------3-2-|-|
Db|-2-------------------|-|-5-------------------|-|-0-------------------|-|---------------------|-|

Eb|---------------------|-|---------------------|-|---------------------|-|---------------------|-|
Bb|---------------------|-|---------------------|-|---------------------|-|---------------------|-|
Gb|---------------------|-|---------------------|-|-7-------------------|-|-5---------------5-4-|-|
Db|-2-------------------|-|-5-------------------|-|-7-------------------|-|-5---------------5-4-|-|
Ab|-2-------------------|-|-5-------------------|-|-5-------------------|-|-3---------------3-2-|-|
Db|-2-------------------|-|-5-------------------|-|-0-------------------|-|---------------------|-|

Eb|---------------------|-|-7-------------------|-|---------------------|-|-12------------------|-|
Bb|-7-------------------|-|---------------------|-|-7-------------------|-|---------------------|-|
Gb|---------------------|-|-------------------5-|-|---------------------|-|---------------------|-|
Db|---------------------|-|---------------------|-|---------------------|-|---------------------|-|
Ab|---------------------|-|---------------------|-|---------------------|-|---------------------|-|
Db|-*-------------------|-|-*-----------------*-|-|-*-------------------|-|-*-------------------|-|





Eb|---------------------|-|---------------------|-|---------------------|-|---------------------|-|
Bb|---------------------|-|---------------------|-|---------------------|-|---------------------|-|
Gb|---------------------|-|---------------------|-|---------------------|-|---------------------|-|
Db|---9-9---------------|-|---9-9---------------|-|---9-9---------------|-|---9-9---------------|-|
Ab|-7-----10-9-9-9-9h10-|-|-7-----10-9-9--9h10--|-|-7-----10-9-9-9-9h10-|-|-7-----10-9-9-9-9h10-|-|
Db|---------------------|-|---------------------|-|---------------------|-|---------------------|-|




Eb|---------------------|-|-|
Bb|---------------------|-|-| 
Gb|--------9-11-12-11---|-|-| 
Db|------9--------------|-|-|
Ab|-7-10----------------|-|-| 
Db|---------------------|-|-|





Comments


Popular Linkin Park tabs & chords
Bleed It Out 4 Bass Tabs
Numb Encore Bass Tabs
Part Of Me Bass Tabs
Iridescent Chords
Not Alone 1 Chords
Qwerty Chords
Ill Be Gone Tabs
Lying From You 2 Tabs
P5hng Me A Wy Tabs
Points Of Authorty Tabs


Song lyrics



↑ Back to top | Tablatures and chords are parodies/interpretations of the original songs. You may use it for private study, scholarship, research or language learning purposes only
© 2014 AZChords.com Contact us | Privacy policy | DMCA | Add/correct tabs | Request tabs | Top 50 tabs