» » »

A Place For My Head Tabs

Artists:  A B C D E F G H I J K L M N O P Q R S T U V W X Y Z # 

A Place For My Head Tabs

(ver. 1)
Linkin Park Tabs
 Rating:
1.5/5 (98 votes)
    A Place For My Head lessons Tabs too difficult? Try these video lessons and learn fast
                
C# tuning

Intro/Verse
------------------------------------------------
------------------------------------------------
------------------------------------------------
-------9-9-9-10-9-7---------------------------
--7-7------------------10-10-8-8--8-8-8-10--
------------------------------------------------

Second prt of itro
----------------------------------
----------------------------------
----------------------------------
--2-2----2-2----2-2----2-2-----
--2-2----2-2----2-2----2-2-----
--2-2----2-2----2-2----2-2------

Pre Chorus
-----------------------------
-----------------------------
-----------------------------
--2----------------------12-
--2----------------------12-
--2----------------------12-

Chorus
-----------------------------------
-----------------------------------
-----------------------------------
--2-2--9-10-9-7--5-5-3-3-3-5--
--2-2--9-10-9-7--5-5-3-3-3-5--
--2-2--9-10-9-7--5-5-3-3-3-5--

Bridge
----------------------------------------
----------------------------------------
----------------------------------------
-2-2--2-2-2-2--2-2-2--2-2-2-2-12---
-2-2--2-2-2-2--2-2-2--2-2-2-2-12---
-2-2--2-2-2-2--2-2-2--2-2-2-2-12---

Outro
--------------------------------------
--------------------------------------
--------------------------------------
--2-2--2-2-2--2-2-2--2-2-2-12-----
--2-2--2-2-2--2-2-2--2-2-2-10----
--2-2--2-2-2--2-2-2--2-2-2-10----
            
Submit corrections

↑ Back to top | Linkin Park Tabs for A Place For My Head. Lyrics for acoustic guitar and electric guitar. Tablatures and chords are parodies/interpretations of the original songs. You may use it for private study, scholarship, research or language learning purposes only