» » »

05 - Hit The Floor Tabs (ver.1)

Artists:  A B C D E F G H I J K L M N O P Q R S T U V W X Y Z # 

05 - Hit The Floor Tabs (ver.1)

Linkin Park
Rating:
0/5 (0 votes)

Hard to play? Try these video lessons and learn fast.
                Set Octaver to 1 Octave Below

   Verse (With Octaver and Echo)
Eb|----------------|
Bb|----------------|
Gb|----------------|
Db|----------------|
Ab|----------------|
Db|-0-4-0-1--1-1-0-|
pm  . . . .  . . .

   Fill
Eb|-----------|
Bb|-----------|
Gb|-----------|
Db|-0-8-8-8-7-|
Ab|-0-8-8-8-7-|
Db|-0-8-8-8-7-|

   Chorus
Eb|----------------|-----------|
Bb|----------------|-----------|
Gb|----------------|-----------|
Db|-0-4-0-1--1-1-0-|-0-8-8-8-7-|
Ab|-0-4-0-1--1-1-0-|-0-8-8-8-7-|
Db|-0-4-0-1--1-1-0-|-0-8-8-8-7-|

   Bridge 
Eb|-----------|-----------|
Bb|-----------|-----------|
Gb|-----------|-----------|
Db|-0-0-0-0-3-|-0-0-0-0-1-|
Ab|-0-0-0-0-3-|-0-0-0-0-1-|
Db|-0-0-0-0-3-|-0-0-0-0-1-|
            
Hard to play? Try these video lessons and learn fast. | Correct




comments powered by Disqus
↑ Back to top | Tablatures and chords are parodies/interpretations of the original songs. You may use it for private study, scholarship, research or language learning purposes only