» » »

Linkin Park, 0 One Step Closer Tabs (ver.1)

Artists:  A B C D E F G H I J K L M N O P Q R S T U V W X Y Z # 

0 One Step Closer Tabs (ver.1)

Linkin Park Tabs
Rating:
0/5 (0 votes)
0 One Step Closer lessons Tabs too difficult? Try these video lessons and learn fast
                <>: Harmonic

W/ DISTORTION
          INTRO
Eb|-----------------------|
Bb|-----------------------|
Gb|-----------------------|
Db|-----------------------|   Play This 4 Times
Ab|-----------7-----------|
Db|-0-<5>-<7>---8-<7>-0-3-|

Eb|-----------------|
Bb|-----------------|
Gb|-------9-------5-|
Db|-0-0-0-x-8-7-x-x-|   Play This 4 Times
Ab|-0-0-0-7-8-7-x-3-|
Db|-0-0-0---8-7-x---|

        VERSE
Eb|-----------------|
Bb|-----------------|
Gb|-------9-------5-|
Db|-0-0-0-x-8-7-x-x-|   Play This 8 Times
Ab|-0-0-0-7-8-7-x-3-|
Db|-0-0-0---8-7-x---|

     PRE-CHORUS
Eb|-------------------------|
Bb|-------------------------|
Gb|-------------------------|
Db|-55-55-5-55-55-5-55-55-5-|  Play Once
Ab|-55-55-5-55-55-5-55-55-5-|
Db|-55-55-5-55-55-5-55-55-5-|
       ....    ....    ....
        PM      PM      PM

         CHORUS
Eb|-----------------------------------------------|
Bb|-----------------------------------------------|
Gb|-----------------------------------------------|
Db|-0-0--12-12--10-10--7-7--10-10--5-5--7-7--1111-| Play That 2 Times
Ab|-0-0--12-12--10-10--7-7--8--8---5-5--7-7--1111-|
Db|-0-0--12-12--10-10--7-7--8--8---5-5--7-7--3333-|
                                             ^ Those are 1's, not 11's.

VERSE
Eb|-----------------|
Bb|-----------------|
Gb|-------9-------5-|
Db|-0-0-0-x-8-7-x-x-|   Play This 8 Times
Ab|-0-0-0-7-8-7-x-3-|
Db|-0-0-0---8-7-x---|

     PRE-CHORUS
Eb|---------------------------------------|
Bb|---------------------------------------| For the 2.5 harmonics, put your finger 
Gb|--------------------<3><2.5><2.5>------| between the 2nd and 3rd frets and press 
Db|-55-55-5-55-55-5-55--------------<2.5>-| down lightly on the string. Turn the amp
Ab|-55-55-5-55-55-5-55--------------------| volume up to hear that part.
Db|-55-55-5-55-55-5-55--------------------| Play This Once
       ....    ....    
       PM       PM     

                      CHORUS  
Eb|-----------------------------------------------|
Bb|-----------------------------------------------|
Gb|-----------------------------------------------| Play This 3 Times
Db|-0-0--12-12--10-10--7-7--10-10--5-5--7-7--1111-|
Ab|-0-0--12-12--10-10--7-7--8--8---5-5--7-7--1111-|
Db|-0-0--12-12--10-10--7-7--8--8---5-5--7-7--3333-|

Eb|--------------------------------------------------------------|
Bb|--------------------------------------------------------------|
Gb|--------------------------------------------------------------|Then Play This Once
Db|-0-0--12-12--10-10--7-7--10-10--5-5--7-7-1111-1-1-1-1-1-1-1-1-|
Ab|-0-0--12-12--10-10--7-7--8--8---5-5--7-7-3333-1-1-1-1-1-1-1-1-|
Db|-0-0--12-12--10-10--7-7--8--8---5-5--7-7-3333-3-3-3-3-3-3-3-3-|

          BRIDGE
Eb|-----------------------|
Bb|-----------------------|
Gb|-----------------------|
Db|-----------------------|   Play This 4 Times 
Ab|-----------7-----------|
Db|-0-<5>-<7>---8-<7>-0-3-|

Eb|--------------------------|
Bb|--------------------------|
Gb|--------------------------|
Db|-1-0--x-x-x-0-3-1-0-6-0-3-|   Play 3 Times
Ab|-1-0--x-x-x-0-3-1-0-6-0-3-|
Db|-1-0--x-x-x-0-3-1-0-6-0-3-|

Eb|---------------------------|
Bb|---------------------------|
Gb|---------------------------|
Db|-1-0--x-x-x-0-3-1-0--x-x-x-|   Play Once
Ab|-1-0--x-x-x-0-3-1-0--x-x-x-|
Db|-1-0--x-x-x-0-3-1-0--x-x-x-|

Eb|--------------------------|
Bb|--------------------------|
Gb|--------------------------|
Db|-1-0--x-x-x-0-3-1-0-6-0-3-|   Play 3 Times
Ab|-1-0--x-x-x-0-3-1-0-6-0-3-|
Db|-1-0--x-x-x-0-3-1-0-6-0-3-|

Eb|--------------------------|
Bb|--------------------------|
Gb|--------------------------|
Db|-1-0--x-x-x-0-3-1-0--xxxx-|   Play Once
Ab|-1-0--x-x-x-0-3-1-0--xxxx-|
Db|-1-0--x-x-x-0-3-1-0--xxxx-|


                      CHORUS  
Eb|-----------------------------------------------|
Bb|-----------------------------------------------|
Gb|-----------------------------------------------| Play This 3 Times
Db|-0-0--12-12--10-10--7-7--10-10--5-5--7-7--1111-|
Ab|-0-0--12-12--10-10--7-7--8--8---5-5--7-7--1111-|
Db|-0-0--12-12--10-10--7-7--8--8---5-5--7-7--3333-|

Eb|--------------------------------------------------------------|
Bb|--------------------------------------------------------------|
Gb|--------------------------------------------------------------|Then Play This Once
Db|-0-0--12-12--10-10--7-7--10-10--5-5--7-7-1111-1-1-1-1-1-1-1-1-|
Ab|-0-0--12-12--10-10--7-7--8--8---5-5--7-7-1111-1-1-1-1-1-1-1-1-|
Db|-0-0--12-12--10-10--7-7--8--8---5-5--7-7-3333-3-3-3-3-3-3-3-3-|
            

comments powered by Disqus
↑ Back to top | Linkin Park Tabs for 0 One Step Closer. Lyrics for acoustic guitar and electric guitar. Tablatures and chords are parodies/interpretations of the original songs. You may use it for private study, scholarship, research or language learning purposes only