>
 >
Figure 2

Figure 2 Guitar Tabs

Linkin Park - Figure 2 chords, tabs, tablatures, lyrics

Guitar lessons | Add/correct | Request | Top 50 tabs Artists:  A B C D E F G H I J K L M N O P Q R S T U V W X Y Z 0-9

Figure 2 Guitar Tabs – Linkin Park

CD, Sheet music, Poster

Do you like Figure 2? Share with your friends now
TabsTabs v2Tabs v3
Linkin Park - Figure.09
Tuning (low to high) Db, Ab, Db, Gb, Bb, Eb  (C#, G#, C#, F#, A#, D#)

Intro
Eb ----------------------------------------
Bb ----------------------------------------
Gb ----------------------------------------
Db ----------------------------------------
Ab --5---8--5---8--5---8---5h6-5h6--5h6----
Db ----0------0------0---------------------

Eb ------------------------------------------
Bb ------------------------------------------
Gb ------------------------------------------
Db ------------------------0h1-1-1-1-1-0h1---
Ab --5---8--5---8--5---8---0h1-1-1-1-1-0h1---
Db ----0------0------0-----0h1-1-1-1-1-0h1---

Eb -----------------------------------------
Bb -----------------------------------------
Gb ----7------7------7----------------------
Db --0-x-5--0-x-5--0-x-5--0h1-1-1-1-1-0h1---
Ab --0-5-3--0-5-3--0-5-3--0h1-1-1-1-1-0h1---
Db --0---3--0---3--0---3--0h1-1-1-1-1-0h1---

Verse
Eb --------------------------------------
Bb --------------------------------------
Gb ----7-----7-----7---------------------
Db --0-x---0-x---0-x---0h1-1-1-1-1-0h1--- X2
Ab --0-5---0-5---0-5---0h1-1-1-1-1-0h1---
Db --0-----0-----0-----0h1-1-1-1-1-0h1---

Eb -----------------------------------------
Bb -----------------------------------------
Gb ----7------7------7----------------------
Db --0-x-5--0-x-5--0-x-5--0h1-1-1-1-1-0h1--- X2
Ab --0-5-3--0-5-3--0-5-3--0h1-1-1-1-1-0h1---
Db --0---3--0---3--0---3--0h1-1-1-1-1-0h1---

Pre – Chorus (low volume)
Eb ---------------------------
Bb ---------------------------
Gb ---------------------------
Db --0-0-8--0-0-8--0-0-8--0---
Ab --0-0-8--0-0-8--0-0-8--0---
Db --0-0-8--0-0-8--0-0-8--0---

Chorus 
Eb ----------------------------------
Bb ----------------------------------
Gb ----------------------------------
Db --0--0--8-10--0-3--3--5--5-7-7---- X3
Ab --0--0--8--8--0-3--3--5--5-7-7----
Db --0--0--8--8--0-3--3--5--5-7-7----

Eb ---------------------------------
Bb ---------------------------------
Gb ---------------------------------
Db --0--0--8-10--0-3--3--7-7-1-1---- 
Ab --0--0--8--8--0-3--3--7-7-1-1----
Db --0--0--8--8--0-3--3--7-7-1-1----

Pre – Verse
Eb ------------------------------------------
Bb ------------------------------------------
Gb ----7------7-----7------------------------
Db --0-x-5--0-x-5--0-x-5--0h1-1-1-1-1-0h1---- 
Ab --0-5-3--0-5-3--0-5-3--0h1-1-1-1-1-0h1----
Db --0---3--0---3--0---3--0h1-1-1-1-1-0h1----

Verse, Pre – Chorus

Chorus 2
Eb ----------------------------------
Bb ----------------------------------
Gb ----------------------------------
Db --0--0--8-10--0-3--3--5--5-7-7---- X3
Ab --0--0--8--8--0-3--3--5--5-7-7----
Db --0--0--8--8--0-3--3--5--5-7-7----

Eb ------------------------------------------------
Bb ------------------------------------------------
Gb ------------------------------------------------
Db --0--0--8-10--0-3--3--7-7-1-1-1-1-1-1-1-1-1-1--- 
Ab --0--0--8--8--0-3--3--7-7-1-1-1-1-1-1-1-1-1-1---
Db --0--0--8--8--0-3--3--7-7-1-1-1-1-1-1-1-1-1-1---

Pre – Bridge
Eb ----------------------------------------
Bb ----------------------------------------
Gb ----------------------------------------
Db ----------------------------------------
Ab --5---8--5---8--5---8---5h6-5h6--5h6----
Db ----0-------0------0--------------------

Eb ------------------------------------------
Bb ------------------------------------------
Gb ------------------------------------------
Db ------------------------0h1-1-1-1-1-0h1---
Ab --5---8--5---8--5---8---0h1-1-1-1-1-0h1---
Db ----0-------0------0----0h1-1-1-1-1-0h1---

Bridge
Eb -----------------------------------------------
Bb -----------------------------------------------
Gb -------------------11--------------------7-----
Db --1-0-x--x-x-0h1-3--x--1-0-x--x-x-0h1-3--x-----
Ab --1-0-x--x-x-0h1-3--9--1-0-x--x-x-0h1-3--5-----
Db --1-0-x--x-x-0h1-3-----1-0-x--x-x-0h1-3--------
                                                                                            X2
Eb ---------------------------------------------------
Bb ---------------------------------------------------
Gb -------------------11------------------------------
Db --1-0-x--x-x-0h1-3--x--1-0-x--x-x-0h1-3--x-x--x----
Ab --1-0-x--x-x-0h1-3--9--1-0-x--x-x-0h1-3--x-x--x----
Db --1-0-x--x-x-0h1-3-----1-0-x--x-x-0h1-3--x-x--x----

Chorus 3
Eb ------------------------------------
Bb ------------------------------------
Gb ------------------------------------
Db --0--0--8-10--0-3--3--5--5-7-7------ X3
Ab --0--0--8--8--0-3--3--5--5-7-7------
Db --0--0--8--8--0-3--3--5--5-7-7------

Eb --------------------------------------
Bb --------------------------------------
Gb --------------------------------------
Db --0--0--8-10--0-3--3--7-7--7-7-7-7---- 
Ab --0--0--8--8--0-3--3--7-7--7-7-7-7----
Db --0--0--8--8--0-3--3--7-7--7-7-7-7----

Eb -----------------------------------
Bb -----------------------------------
Gb -----------------------------------
Db --0--0--8-10--0-3--3--5--5-7-7----- X3
Ab --0--0--8--8--0-3--3--5--5-7-7-----
Db --0--0--8--8--0-3--3--5--5-7-7-----

Eb ------------------------------------------------
Bb ------------------------------------------------
Gb ------------------------------------------------
Db --0--0--8-10--0-3--3--7-7-1-1-1-1-1-1-1-1-1-1--- 
Ab --0--0--8--8--0-3--3--7-7-1-1-1-1-1-1-1-1-1-1---
Db --0--0--8--8--0-3--3--7-7-1-1-1-1-1-1-1-1-1-1---





Comments


Popular Linkin Park tabs & chords
Burning In The Skies Chords
Little Things Give You Away 2 Chords
Numb 3 Chords
1 Step Closer Tabs
Burn It Down 1 Tabs
Castle Of Glass 1 Tabs
Crawlinge Tabs
Papercut Riff And Chorus Tabs
Points Of Authority 99 Problems One Step Closer Tabs
From The Inside Ukulele


Song lyrics



↑ Back to top | Tablatures and chords are parodies/interpretations of the original songs. You may use it for private study, scholarship, research or language learning purposes only
© 2014 AZChords.com Contact us | Privacy policy | DMCA | Add/correct tabs | Request tabs | Top 50 tabs