» » »

08 - Figure Bass tabs (ver.1)

Artists:  A B C D E F G H I J K L M N O P Q R S T U V W X Y Z # 

08 - Figure Bass tabs (ver.1)

Linkin Park
Rating:
0/5 (0 votes)

Hard to play? Try these video lessons and learn fast.
                "(9)
Turn your E string into a C#

'~' means let it ring

Intro (play it 2 times)
G :----------*---------|X3|----------
D :----------*---------|X3|----------
A :----------*---------|X3|----------
C#:-0111-101-*-0----3--|X3|-0111-101-
(play what's before the stars only the first time at the beginning of the song)

Verses
G :-------------------------------------|X2|--------------------------------------|X2|
D :-------------------------------------|X2|--------------------------------------|X2|
A :-------------------------------------|X2|--------------------------------------|X2|
C#:-0--------0--------0--------0111-101-|X2|-0-------0-3-------0-3-------0111-101-|X2|

1st Chorus
G :--------------------------------------|X3|-------------------------------------
D :--------------------------------------|X3|-------------------------------------
A :---------00000------------------------|X3|---------00000-----------------------
C#:-00000-0-------7-33333-3-5~----7~-----|X3|-00000-0-------7-33333-3-7~----1~----

Instrumental Part
G :---------|X3|----------
D :---------|X3|----------
A :---------|X3|----------
C#:-0----3--|X3|-0111-101-

2nd Chorus
G :--------------------------------------|X3|--------------------------------------------------
D :--------------------------------------|X3|--------------------------------------------------
A :---------00000------------------------|X3|---------00000------------------------------------
C#:-00000-0-------7-33333-3-5~----7~-----|X3|-00000-0-------7-33333-3-7~----1~--1~--1~--1~--1~-

No Bass in the little plart just before the bridge

Bridge
G :------------|X8|
D :------------|X8|
A :------------|X8|
C#:-1-0----013-|X8|

Last Chorus
G :--------------------------------------|X3|-------------------------------------
D :--------------------------------------|X3|-------------------------------------
A :---------00000------------------------|X3|---------00000-----------------------
C#:-00000-0-------7-33333-3-5~----7~-----|X3|-00000-0-------7-33333-3-7~----7~----

Then The Outro (exactly like the 2nd chorus)
G :--------------------------------------|X3|--------------------------------------------------
D :--------------------------------------|X3|--------------------------------------------------
A :---------00000------------------------|X3|---------00000------------------------------------
C#:-00000-0-------7-33333-3-5~----7~-----|X3|-00000-0-------7-33333-3-7~----1~--1~--1~--1~--1~-
"            
Hard to play? Try these video lessons and learn fast. | Correct




comments powered by Disqus
↑ Back to top | Tablatures and chords are parodies/interpretations of the original songs. You may use it for private study, scholarship, research or language learning purposes only