» » »

08 - Figure Tabs (ver.1)

Artists:  A B C D E F G H I J K L M N O P Q R S T U V W X Y Z # 

08 - Figure Tabs (ver.1)

Linkin Park
Rating:
0/5 (0 votes)

Hard to play? Try these video lessons and learn fast.
                Intro Part 1
Eb|--------------|------------------------|
Bb|--------------|------------------------|
Gb|--------------|------------------------|
Db|--------------|------------------------|
Ab|-5---8--5---5-|-5---8--5h6p5h6p5h6p5h6-|
Db|---0------0---|---0--------------------|

   Intro Part 1 Fill
Eb|--------------|----------------------|
Bb|--------------|----------------------|
Gb|--------------|----------------------|
Db|--------------|--------0h1-1-1-1-1p0-|
Ab|-5---8--5---5-|-5---8--0h1-1-1-1-1p0-|
Db|---0------0---|---0----0h1-1-1-1-1p0-|

   Intro Part 2/Verse Part 2
Eb|------------------|------------------------|
Bb|------------------|------------------------|
Gb|------------------|------------------------|
Db|-0-----5--0-----5-|-0-----5--0h1-1-1-1-1p0-|
Ab|-0-<5>-3--0-<5>-3-|-0-<5>-3--0h1-1-1-1-1p0-|
Db|-0-<5>-3--0-<5>-3-|-0-<5>-3--0h1-1-1-1-1p0-|

   Verse Part 1
Eb|--------------|--------------------|
Bb|--------------|--------------------|
Gb|--------------|----------------------|
Db|-0------0-----|-0------0h1-1-1-1-1p0-|
Ab|-0h<5>--0h<5>-|-0h<5>--0h1-1-1-1-1p0-|
Db|-0h<5>--0h<5>-|-0h<5>--0h1-1-1-1-1p0-|

   Pre-Chorus (All Treble, low volume)
Eb|--------------|----------|
Bb|--------------|----------|
Gb|--------------|----------|
Db|-0-0-8--0-0-8-|-0-0-8--0-|
Ab|-0-0-8--0-0-8-|-0-0-8--0-|
Db|-0-0-8--0-0-8-|-0-0-8--0-|

   Chorus Part 1
Eb|-------------------|-----------------------|
Bb|-------------------|-----------------------|
Gb|-------------------|-----------------------|
Db|-0-0-0-0--8-8-8-10-|-3-3-3-3--5-5-5--7-7-7-|
Ab|-0-0-0-0--8-8-8-8--|-3-3-3-3--5-5-5--7-7-7-|
Db|-0-0-0-0--8-8-8-8--|-3-3-3-3--5-5-5--7-7-7-|

   Chorus Part 2
Eb|-------------------|-------------------------|
Bb|-------------------|-------------------------|
Gb|-------------------|-------------------------|
Db|-0-0-0-0--8-8-8-10-|-3-3-3-3--7-7-7--1-1-1-1-|
Ab|-0-0-0-0--8-8-8-8--|-3-3-3-3--7-7-7--1-1-1-1-|
Db|-0-0-0-0--8-8-8-8--|-3-3-3-3--7-7-7--1-1-1-1-|

   Bridge
Eb|-----------------------|-----------------------|
Bb|-----------------------|-----------------------|
Gb|-----------------------|-----------------------|
Db|-1-0-X-X-X-0h1h3-X-----|-1-0-X-X-X-0h1h3-X-----|
Ab|-1-0-X-X-X-0h1h3-X-<9>-|-1-0-X-X-X-0h1h3-X-<5>-|
Db|-1-0-X-X-X-0h1h3-X-<9>-|-1-0-X-X-X-0h1h3-X-<5>-|

Eb|-----------------------|-----------------------|
Bb|-----------------------|-----------------------|
Gb|-----------------------|-----------------------|
Db|-1-0-X-X-X-0h1h3-X-----|-1-0-X-X-X-0h1h3-X-X-X-|
Ab|-1-0-X-X-X-0h1h3-X-<9>-|-1-0-X-X-X-0h1h3-X-X-X-|
Db|-1-0-X-X-X-0h1h3-X-<9>-|-1-0-X-X-X-0h1h3-X-X-X-|
            
Hard to play? Try these video lessons and learn fast. | Correct




comments powered by Disqus
↑ Back to top | Tablatures and chords are parodies/interpretations of the original songs. You may use it for private study, scholarship, research or language learning purposes only