>
 >
Don't Stay 1

Don't Stay 1 Guitar Tabs

Linkin Park - Don't Stay 1 chords, tabs, tablatures, lyrics

Guitar lessons | Add/correct | Request | Top 50 tabs Artists:  A B C D E F G H I J K L M N O P Q R S T U V W X Y Z 0-9

Don't Stay 1 Guitar Tabs – Linkin Park

CD, Sheet music, Poster

Do you like Don't Stay 1? Share with your friends now
ChordsTabsTabs v2Tabs v3
~ = let ring
/ = slide
^() = bend
X = dead string

Amazing song by Linkin Park.  I had doubts on this CD until I heard it, so if you 
are having doubts too, go and get it, its awesome!  

actually in Drop-B tuning.  From the May '03 issue of Guitar World:
"DELSON: On 'Don't Stay' I used a really cool Ibanez RG model that has an extended
scale.  And I actually did a dropped-B tuning on that [low to high: B F# B E G# C#]
as opposed to the dropped C# tuning I usually use [low to high C# G# C# F# A# D#]."


Intro
C#-------------------------------|
G#-------------------------------|
E--------------------------------|
B--------------------------------|  x4
F#-------------------------------|
B---0-7-0-7-3-3-5-5-5-8-7--------|

Intro part 2
C#-------------------------------|
G#-------------------------------|
E--------------------------------|
B---0-7-0-7-3-3-5-5-5-8-7--------|  x4
F#--0-7-0-7-3-3-5-5-5-8-7--------|
B---0-7-0-7-3-3-5-5-5-8-7--------|

Verse

C#-------------------------------|
G#-------------------------------|
E--------------------------------|
B--------------------------------|  x3
F#-------------------------------|
B---0-7-0-7-3-3-5-5-5-8-7--------|

C#-------------------------------|
G#-------------------------------|
E--------------------------------|
B--------------------------------|  x1
F#-------------------------------|
B---0-7-0-7-3-3-1-1-X-X-X--------|

C#-------------------------------|
G#-------------------------------|
E--------------------------------|
B--------------------------------|  x3
F#-------------------------------|
B---0-7-0-7-3-3-5-5-5-8-7--------|

C#-------------------------------|
G#-------------------------------|
E--------------------------------|
B--------------------------------|  x1
F#-------------------------------|
B---0-7-0-7-3-3-1-1-X-X-X--------|

Chorus

C#-------------------------------|
G#-------------------------------|
E--------------------------------|
B--------------------------------|  x4
F#--0~-7-8-10-5~-7-3-1-0---------|
B---0~-7-8-10-5~-7-3-1-0---------|

Verse

Chorus

Intro (with slow flange)

C#---------------------------------|
G#---------------------------------|
E---------------5~/8---------------|
B---------------X------------------|  x3
F#--0-0-0-1-1-0-3~/6---------------|
B---0-0-0-1-1-0--------------------|

C#---------------------------------|
G#---------------------------------|
E---------------5^(8)--------------|
B---------------X------------------|  x1
F#--0-0-0-1-1-0-3^(6)--------------|
B---0-0-0-1-1-0--------------------|

C#---------------------------------|
G#---------------------------------|
E---------------5~/8---------------|
B---------------X------------------|  x3
F#--0-0-0-1-1-0-3~/6---------------|
B---0-0-0-1-1-0--------------------|

Chorus

Intro part 2

C#-------------------------------|
G#-------------------------------|
E--------------------------------|
B---0-7-0-7-3-3-1-1-X-X-X--------|  x1
F#--0-7-0-7-3-3-1-1-X-X-X--------|
B---0-7-0-7-3-3-1-1-X-X-X--------|


me to chat.





Comments


Popular Linkin Park tabs & chords
Little Things Give You Away 3 Bass Tabs
New Divide 3 Bass Tabs
One Step Closer 7 Bass Tabs
Bleed It Out 2 Chords
Powerless Chords
About To Break Tabs
Clarity Intro Tabs
Dirt Off Your Shoulder Lying From You Tabs
Hybrid Theory 1 Tabs
Numb Tabs


Song lyrics



↑ Back to top | Tablatures and chords are parodies/interpretations of the original songs. You may use it for private study, scholarship, research or language learning purposes only
© 2014 AZChords.com Contact us | Privacy policy | DMCA | Add/correct tabs | Request tabs | Top 50 tabs