» » »

Linkin Park, Don't Stay Tabs (ver.1)

Artists:  A B C D E F G H I J K L M N O P Q R S T U V W X Y Z # 

Don't Stay Tabs (ver.1)

Linkin Park Tabs
 Rating:
4/5 (4 votes)
Don't Stay lessons Tabs too difficult? Try these video lessons and learn fast
1
                Tuning: low 2 high   B F# B E G# C#

this is right, 100% i know it. for the intro chorus and beginging of the verse he is playing the exact same thing
but with computer effects to make it louder and quieter witch i will specify when he switches

Intro:                          played like this x4 quiet 
C#|----------------------------|                 x4 loud
G#|----------------------------|                 
E |----------------------------|
B |7-0-0-7-3--3-5-5-5-8-7--7--7|
F#|7-0-0-7-3--3-5-5-5-8-7--7--7|
B |7-0-0-7-3--3-5-5-5-8-7--7--7|

Verse:play this x3 quiet       then   play this the last time loud     
C#|----------------------------|  C#|--------------------------|       
G#|----------------------------|  G#|--------------------------|
E |----------------------------|  E |--------------------------|
B |7-0-0-7-3--3-5-5-5-8-7--7--7|  B |7-0-0-7-3--3-1-1--1--1-1-1|
F#|7-0-0-7-3--3-5-5-5-8-7--7--7|  F#|7-0-0-7-3--3-1-1--1--1-1-1|
B |7-0-0-7-3--3-5-5-5-8-7--7--7|  B |7-0-0-7-3--3-1-1--1--1-1-1|

Chorus: play x4
C#|------------------------------|
G#|------------------------------|
E |------------------------------|
B |0---0--7--8--10-5---5--7--3--1|
F#|0---0--7--8--10-5---5--7--3--1|
B |0---0--7--8--10-5---5--7--3--1|

after chorus: play x2 loud
C#|----------------------------|                 
G#|----------------------------|                 
E |----------------------------|
B |7-0-0-7-3--3-5-5-5-8-7--7--7|
F#|7-0-0-7-3--3-5-5-5-8-7--7--7|
B |7-0-0-7-3--3-5-5-5-8-7--7--7|

Verse:play this x3 quiet         then   play this the last time     
C#|----------------------------|  C#|--------------------------|       
G#|----------------------------|  G#|--------------------------|
E |----------------------------|  E |--------------------------|
B |7-0-0-7-3--3-5-5-5-8-7--7--7|  B |7-0-0-7-3--3-1-1--1--1-1-1|
F#|7-0-0-7-3--3-5-5-5-8-7--7--7|  F#|7-0-0-7-3--3-1-1--1--1-1-1|
B |7-0-0-7-3--3-5-5-5-8-7--7--7|  B |7-0-0-7-3--3-1-1--1--1-1-1|

      play this x3             then   play this the last time     
C#|----------------------------|  C#|--------------------------|       
G#|----------------------------|  G#|--------------------------|
E |----------------------------|  E |--------------------------|
B |7-0-0-7-3--3-5-5-5-8-7--7--7|  B |7-0-0-7-3--3-1-1--1--1-1-1|
F#|7-0-0-7-3--3-5-5-5-8-7--7--7|  F#|7-0-0-7-3--3-1-1--1--1-1-1|
B |7-0-0-7-3--3-5-5-5-8-7--7--7|  B |7-0-0-7-3--3-1-1--1--1-1-1|

Chorus: play x4 
C#|------------------------------|
G#|------------------------------|
E |------------------------------|
B |0---0--7--8--10-5---5--7--3--1|
F#|0---0--7--8--10-5---5--7--3--1|
B |0---0--7--8--10-5---5--7--3--1|

AfterChorus: play 4x with flange or phaser i dunno witch one

C#|----------------------------|                 
G#|----------------------------|                 
E |----------------------------|
B |7-0-0-7-3--3-5-5-5-8-7--7--7|
F#|7-0-0-7-3--3-5-5-5-8-7--7--7|
B |7-0-0-7-3--3-5-5-5-8-7--7--7|

       play this x7           then    play this the last time          
C#|---------------------------|   C#|----------------------------------------------|
G#|---------------------------|   G#|----------------------------------------------|
E |--------------5-5-5-5-5-5\8|   E |----------------------------------------------|
B |0-0-0-1--0--0-x-x-x-x-x-x\x|   B |0001-0001-1-111-011-111-011111-011111-01111111|
F#|0-0-0-1--0--0-3-3-3-3-3-3\6|   F#|0001-0001-1-111-011-111-011111-011111-01111111|
B |0-0-0-1--0--0--------------|   B |0001-0001-1-111-011-111-011111-011111-01111111|

Chorus: play x4 
C#|------------------------------|
G#|------------------------------|
E |------------------------------|
B |0---0--7--8--10-5---5--7--3--1|
F#|0---0--7--8--10-5---5--7--3--1|
B |0---0--7--8--10-5---5--7--3--1|

Outtro:play this x3             then   play this the last time     
C#|----------------------------|  C#|--------------------------|       
G#|----------------------------|  G#|--------------------------|
E |----------------------------|  E |--------------------------|
B |7-0-0-7-3--3-5-5-5-8-7--7--7|  B |7-0-0-7-3--3-1-1--1--1-1-1|
F#|7-0-0-7-3--3-5-5-5-8-7--7--7|  F#|7-0-0-7-3--3-1-1--1--1-1-1|
B |7-0-0-7-3--3-5-5-5-8-7--7--7|  B |7-0-0-7-3--3-1-1--1--1-1-1|
            
Submit corrections

comments powered by Disqus
↑ Back to top | Linkin Park Tabs for Don't Stay. Lyrics for acoustic guitar and electric guitar. 1 Tablatures and chords are parodies/interpretations of the original songs. You may use it for private study, scholarship, research or language learning purposes only