» » »

Lindsay Lohan, Ultimate Tabs (ver.3)

Artists:  A B C D E F G H I J K L M N O P Q R S T U V W X Y Z # 

Ultimate Tabs (ver.3)

Lindsay Lohan Tabs
 Rating:
4/5 (4 votes)
Ultimate lessons Tabs too difficult? Try these video lessons and learn fast
1
                
Lindsay Lohan
Ultimate

standard tuning
P - pause

Intro              listen for pattern
-19-----------------|-------------|---------------|
---19-19-19--pause--|-------------|---------------|
--------------------|11--13--11--9|-11--13--11--16|
--------------------|-------------|---------------|
--------------------|-9--11---9--7|--9—-11---9--14|
--------------------|-------------|---------------|

Verse
----------------------------------------------------------------------------
----------------------------------------------------------------------------
-------------------44444444------------------------------44444444-11-11-99-9
-66666666-22222222-44444444-44444444---66666666-22222222-44444444-----------
-66666666-22222222-22222222-44444444---66666666-22222222-22222222-9--9--77-7
-44444444-00000000----------22222222---44444444-00000000--------------------
*palm mute* 								     *play open*

--------------------------------------------------------------------
--------------------------------------------------------------------
-------------------44444444-----------6-6-6-6-6-6-6-6-9-9-9-9-44444-
-66666666-22222222-44444444-44444444--6-6-6-6-6-6-6-6-9-9-9-9-44444-
-66666666-22222222-22222222-44444444--4-4-4-4-4-4-4-4-7-7-7-7-44444-
-44444444-00000000----------22222222--------------------------22222-
*palm mute* 					*play open*

Chorus
------------------------------------------------------------------------------
------------------------------------------------------------------------------
-44-444--------66-666-99-999----p4-444----666----666-99-999---------------99--
-44-444-44-444-66-666-99-999----p4-444-44-444-66-666-99-999-66-666-44-444-99--
-22-222-44-444-44-444-77-777----p2-222-44-444-44-444-77-777-66-666-44-444-77--
--------22-222-------------------------22-222---------------44-444-22-222-----

-------------------
-------------------
-999-88-888-6666-9-
-999-88-888-6666-9-
-777-66-666-4444-7-
-------------------

listen for pattern
|---------------|
|---------------|
|-11--13--11--16|
|---------------|
|--9—-11---9--14|
|---------------|

Verse
----------------------------------------------------------------------------
----------------------------------------------------------------------------
-------------------44444444------------------------------44444444-11-11-99-9
-66666666-22222222-44444444-44444444---66666666-22222222-44444444-----------
-66666666-22222222-22222222-44444444---66666666-22222222-22222222-9--9--77-7
-44444444-00000000----------22222222---44444444-00000000--------------------
*palm mute* 								     *play open*

--------------------------------------------------------------------
--------------------------------------------------------------------
-------------------44444444-----------6-6-6-6-6-6-6-6-9-9-9-9-44444-
-66666666-22222222-44444444-44444444--6-6-6-6-6-6-6-6-9-9-9-9-44444-
-66666666-22222222-22222222-44444444--4-4-4-4-4-4-4-4-7-7-7-7-44444-
-44444444-00000000----------22222222--------------------------22222-
*palm mute* 					*play open*

Chorus
------------------------------------------------------------------------------
------------------------------------------------------------------------------
-44-444--------66-666-99-999----p4-444----666----666-99-999---------------99--
-44-444-44-444-66-666-99-999----p4-444-44-444-66-666-99-999-66-666-44-444-99--
-22-222-44-444-44-444-77-777----p2-222-44-444-44-444-77-777-66-666-44-444-77--
--------22-222-------------------------22-222---------------44-444-22-222-----

-------------------
-------------------
-999-88-888-6666-9-
-999-88-888-6666-9-
-777-66-666-4444-7-
-------------------

Solo *improv on this*
-/14-14141414-14-16-14-14-12-11-12-11---/19-21-------------------------------
-------------------------------------12-------19-19-19--19-21-21-21-19-21-19-
------------------------------------------------------20---------------------
-----------------------------------------------------------------------------
-----------------------------------------------------------------------------
-----------------------------------------------------------------------------

--19-181818-161616-141414-121212-11-11-11-9-9-9-7-7-7--7-9-7-10p9-7-11--4444-
-----------------------------------------------------------------------------
-----------------------------------------------------------------------------
-----------------------------------------------------------------------------
-----------------------------------------------------------------------------
-----------------------------------------------------------------------------

-4444-666666666-7777777-99999999-11-1111111--21b24-21-21b24------------------
-----------------------------------------------------------------------------
-----------------------------------------------------------------------------
-----------------------------------------------------------------------------
-----------------------------------------------------------------------------
-----------------------------------------------------------------------------
** fast strumming *

Chorus * play 2x *
|---------------------------------------------------------|------------------
|---------------------------------------------------------|------------------
|66-666--------88-888---------p6-666----------------------|------------------
|66-666-66-666-88-888-44-444--p6-666-66-666-88-888-44-444-|88-888-66-666-----
|44-444-66-666-66-666-44-444--p4-444-66-666-66-666-44-444-|88-888-66-666-----
|-------44-444--------22-222---------44-444--------22-222-|66-666-44-444-----

-------------------------
-------------------------
---------------8888------
-44-444-33-333-8888-444--
-44-444-33-333-6666-444--
-22-222-11-111------222--

Ending
|-------------------------------|
|-------------------------------|
|66-666--------88-888-----------|
|66-666-66-666-88-888-44-444----|
|44-444-66-666-66-666-44-444----|
|-------44-444--------22-222----|
            
Submit corrections

comments powered by Disqus
↑ Back to top | Lindsay Lohan Tabs for Ultimate. Lyrics for acoustic guitar and electric guitar. 1 Tablatures and chords are parodies/interpretations of the original songs. You may use it for private study, scholarship, research or language learning purposes only