» » »

Lindsay Lohan, Ultimate Bass tabs (ver.2)

Artists:  A B C D E F G H I J K L M N O P Q R S T U V W X Y Z # 

Ultimate Bass tabs (ver.2)

Lindsay Lohan Tabs
 Rating:
4.2/5 (5 votes)
Ultimate lessons Tabs too difficult? Try these video lessons and learn fast
                Lindsay Lohan
Ultimate

standard tuning
P - pause

Intro 

|-----------------------------|
|-------------|---------------|
|-9--11---9--7|--9—-11---9--14|
|-------------|---------------|

Verse
----------------------------------------------------------------------------
----------------------------------------------------------------------------
-------------------22222222------------------------------22222222-9--9--77-7
-44444444-00000000----------22222222---44444444-00000000--------------------
*palm mute* 								     *play open*

--------------------------------------------------------------------
--------------------------------------------------------------------
-------------------22222222-----------4-4-4-4-4-4-4-4-7-7-7-7-------
-44444444-00000000----------22222222--------------------------22222-
*palm mute* 					*play open*

Chorus
------------------------------------------------------------------------------
------------------------------------------------------------------------------
-22-222---------44-444-77-777----2-222--------44-444-77-777---------------77--
--------22-222-------------------------22-222---------------44-444-22-222-----

-------------------
-------------------
-777-66-666-4444-7-
-------------------

listen for pattern
|---------------|
|---------------|
|--9—-11---9--14|
|---------------|

Verse
----------------------------------------------------------------------------
----------------------------------------------------------------------------
-------------------22222222------------------------------22222222-9--9--77-7
-44444444-00000000----------22222222---44444444-00000000--------------------
*palm mute* 								     *play open*

--------------------------------------------------------------------
--------------------------------------------------------------------
-------------------22222222----------4-4-4-4-4-4-4-4-7-7-7-7--------
-44444444-00000000----------22222222--------------------------22222-
*palm mute* 					*play open*

Chorus
------------------------------------------------------------------------------
------------------------------------------------------------------------------
-22-222---------444-77-777-----2-222----------44-444-77-777---------------77--
--------22-222-------------------------22-222---------------44-444-22-222-----

-------------------
-------------------
-777-66-666-4444-7-
-------------------
Chorus * play 2x *
|---------------------------------------------------------|------------------
|---------------------------------------------------------|------------------
|44-444--------66-666----------4-444--------66-666--------|------------------
|-------44-444--------22-222---------44-444--------22-222-|66-666-44-444-----

-------------------------
-------------------------
---------------6666------
-22-222-11-111------222--

Ending
|-------------------------------|
|-------------------------------|
|44-444--------66-666-----------|
|-------44-444--------22-222----|
            
Submit corrections

comments powered by Disqus
↑ Back to top | Lindsay Lohan Bass for Ultimate. Lyrics for acoustic guitar and electric guitar. Tablatures and chords are parodies/interpretations of the original songs. You may use it for private study, scholarship, research or language learning purposes only