>
 >
Ultimate

Ultimate Guitar Tabs

Lindsay Lohan - Ultimate chords, tabs, tablatures, lyrics

Guitar lessons | Add/correct | Request | Top 50 tabs Artists:  A B C D E F G H I J K L M N O P Q R S T U V W X Y Z 0-9

Ultimate Guitar Tabs – Lindsay Lohan

CD, Sheet music, Poster

Do you like Ultimate? Share with your friends now
Bass TabsBass Tabs v2ChordsChords v2Chords v3Chords v4TabsTabs v2Tabs v3Tabs v4Tabs v5Tabs v6Ukulele
Intro:
e----19------------------|---------------------------------------------------
B------19-19-19-19 PAUSE-|---------------------------------------------------
G------------------------|-11-11-11s-13-13-13s11-11-11s9-9--11-11-11s13-13---
D------------------------|-x--x--x---x--x--x--x--x--x--x-x--x--x--x--x--x----
A------------------------|-9--9--9-s-11-11-11s9--9--9-s7-7--9--9--9-s11-11---
E------------------------|---------------------------------------------------

e----------------------------------------------------------------------------
B----------------------------------------------------------------------------
G-13s11-11s16----------------------------------------------------------------
D-x--x--x--x-----------------------------------------------------------------
A-11s9--9-s14----------------------------------------------------------------
E----------------------------------------------------------------------------

verse:
e----------------------------------------------------------------------------
B----------------------------------------------------------------------------
G--------------------44444444-----------------------------44444444-11-11-9-9-
D--66666666-22222222-44444444-44444444--66666666-22222222-44444444-x--x--x-x-
A--66666666-22222222-22222222-44444444--66666666-22222222-22222222-9--9--7-7-
E--44444444-00000000----------22222222--44444444-00000000--------------------
 *palm mute*                                                      *play open*

e----------------------------------------------------------------------------
B----------------------------------------------------------------------------
G--------------------44444444----------6-6-6-6-6-6-6-6-9-9-9-9-4 4 4 4 4-----
D--66666666-22222222-44444444-44444444-6-6-6-6-6-6-6-6-9-9-9-9-4-4-4-4-4-----
A--66666666-22222222-22222222-44444444-4-4-4-4-4-4-4-4-7-7-7-7-4-4-4-4-4-----
E--44444444-00000000----------22222222-------------------------2-2-2-2-2-----
 *palm mute*                          *play open*

Chorus:
e----------------------------------------------------------------------------
B----------------------------------------------------------------------------
G-44-444--------66-666-99-999--p4-444--------66-666-99-999-------------------
D-44-444-44-444-66-666-99-999--p4-444-44-444-66-666-99-999-66-666-44-444-----
A-22-222-44-444-44-444-77-777--p2-222-44-444-44-444-77-777-66-666-44-444-----
E--------22-222-----------------------22-222---------------44-444-22-222-----

e----------------------------------------------------------------------------
B----------------------------------------------------------------------------
G-99-999-88-888-6666-9~------------------------------------------------------
D-99-999-88-888-6666-9~------------------------------------------------------
A-77-777-66-666-4444-7~------------------------------------------------------
E----------------------------------------------------------------------------

bridge:
e----------------------------------------------------------------------------
B----------------------------------------------------------------------------
G-11-11-11s-13-13-13s11-11-11s16---------------------------------------------
D-x--x--x---x--x--x--x--x--x--x----------------------------------------------
A-9--9--9-s-11-11-11s9--9--9-s14---------------------------------------------
E----------------------------------------------------------------------------

Solo:
e-7s14------14------14-14-14b16-12-11-12p11-12p11-12p11--------19-19b21-14---
B---------12------12------------------------------------14-12----------------
G-------11------11-----------------------------------------------------------
D----------------------------------------------------------------------------
A----------------------------------------------------------------------------
E----------------------------------------------------------------------------

e------------19--------19-19-19s18-18-18-18s16-16-16s14-14-14s12-12-12s11-11-
B-16-19-19b21--(21)r19-------------------------------------------------------
G----------------------------------------------------------------------------
D----------------------------------------------------------------------------
A----------------------------------------------------------------------------
E----------------------------------------------------------------------------

e-11 11s9-9s7-7-9-7-9-7-9b11---4444444s6666666s77777777s99999999s11-11-11-11
B----------------------------------------------------------------------------
G----------------------------------------------------------------------------
D----------------------------------------------------------------------------
A----------------------------------------------------------------------------
E----------------------------------------------------------------------------

e-11-11-11-11-21b24-19-21b24~------------------------------------------------
B----------------------------------------------------------------------------
G----------------------------------------------------------------------------
D----------------------------------------------------------------------------
A----------------------------------------------------------------------------
E----------------------------------------------------------------------------

Chorus 2:                                               (x2)
e---------------------------------------------------------I------------------
B---------------------------------------------------------I------------------
G-66-666--------88-888--------p6-666--------88-888--------I------------------
D-66-666-66-666-88-888-44-444-p6-666-66-666-88-888-44-444-I-88-888-66-666----
A-44-444-66-666-66-666-44-444-p4-444-66-666-66-666-44-444-I-88-888-66-666----
E--------44-444--------22-222--------44-444--------22-222-I-66-666-44-444----

e----------------------------------------------------------------------------
B----------------------------------------------------------------------------
G---------------8888---------------------------------------------------------
D-44-444-33-333-8888-444-----------------------------------------------------
A-44-444-33-333-6666-444-----------------------------------------------------
E-22-222-11-111------222-----------------------------------------------------

Ending:
e----------------------------------------------------------------------------
B----------------------------------------------------------------------------
G-66-666--------88-888--------6~---------------------------------------------
D-66-666-66-666-88-888-44-444-6~---------------------------------------------
A-44-444-66-666-66-666-44-444-4~---------------------------------------------
E--------44-444--------22-222------------------------------------------------

Song order:
intro (x1)
verse (x1)
chorus (x1)
bridge (x1)
verse (x1)
chorus (x1)
solo (x1)
chorus 2 (x1)
ending (x1)

please rate me!!!! Melanie H x x x x





Comments


Popular Lindsay Lohan tabs & chords
Ultimate Bass Tabs
Black Hole Chords
Confessions Of A Broken Heart Chords
Drama Queen (That Girl) 1 Chords
What Are You Waiting For Chords
Ultimate 3 Tabs
Bossy Ukulele
Dont Move On Ukulele
I Want You To Want Me Ukulele
Torete Ukulele


Song lyrics



↑ Back to top | Tablatures and chords are parodies/interpretations of the original songs. You may use it for private study, scholarship, research or language learning purposes only
© 2014 AZChords.com Contact us | Privacy policy | DMCA | Add/correct tabs | Request tabs | Top 50 tabs