» » »

Lindsay Lohan, Ultimate Chords (ver.2)

Artists:  A B C D E F G H I J K L M N O P Q R S T U V W X Y Z # 

Ultimate Chords (ver.2)

Lindsay Lohan Tabs
 Rating:
4.3/5 (6 votes)
Ultimate lessons Tabs too difficult? Try these video lessons and learn fast
1
                Lindsay Lohan
Ultimate
Freaky Friday Soundtrack
2003

Take Note: You are required to have a 24 fret electric guitar for the lead solo!!!

Key: B then C#

Tuning: Standard EADGBe

Chords used:
B -   x24442 or x244xx
F# -  244322 or x-9-11-11-x-x
C#m - x46654 or x466xx
G#m - 466444 or 466xxx or x-11-13-13-x-x
E -   022100 or x799xx
Ebm - x68876 or x688xx
C# -  x46664 or x466xx
G# -  466544 or 466xxx or x-11-13-13-x-x-|
Bbm - x13321 or x133xx or x-13-15-15-x-x-|
Fm -  133211 or 133xxx or x-8-10-10-x-x--|


Intro:

Guitar 2: * means harmonics
e|-7*----------|
B|----7*-7*-7*-|
G|-------------|
D|-------------|
A|-------------|
E|-------------|


B-F#-C#m-E x2

Guitar 2:
     B        F#         C#m      E
e|------|-------------|-------|--------|
B|------|-------------|-------|--------|
G|-9/11-|-11---13--13-|-13\11-|-11---9-|
D|-x/-x-|--x----x---x-|--x\-x-|--x---x-|
A|-7/-9-|--9---11--11-|-11\-9-|--9---7-|
E|------|-------------|-------|--------|

   B        F#         C#m     E
e|----|-------------|-------|-----|
B|----|-------------|-------|-----|
G|-11-|-11---13--13-|-13\11-|--16-|
D|--x-|--x----x---x-|--x\-x-|---x-|
A|--9-|--9---11--11-|-11\-9-|--14-|
E|----|-------------|-------|-----|


Verse 1: Palm mute
Abm
You're the kind of friend
    E
who always bends
         B
when I'm broken
       F#
Like remember when
    Abm
You took my heart and
       E              B(harmonics) F# E
put it back together again

Guitar 2: * means harmonics
       B           F#     E
e|-7*----------|-------|------|
B|----7*-7*-7*-|-------|------|
G|-------------|-11-11-|-9--9-|
D|-------------|--x--x-|-x--x-|
A|-------------|--9--9-|-7--7-|
E|-------------|-------|------|
       x2
Abm
I've been wasting
          E
time with clueless guys
             B
But now it's over
       F#
Let me tell you why
    C#m
I'm through
		  E
I've meet someone new
		F# (hold)
Who's just like you

Guitar 2: at "through, I've met someone new..."
            C#m                 E           F#
e|------------------------|------------|----------|
B|------------------------|------------|----------|
G|-6--6--6--6--6--6--6--6-|-9--9--9--9-|-11-11-11-|
D|-x--x--x--x--x--x--x--x-|-x--x--x--x-|--x--x--x-|
A|-4--4--4--4--4--4--4--4-|-7--7--7--7-|--9--9--9-|
E|------------------------|------------|----------|


Chorus 1:
       B
You're it
	   F#
You're the ultimate
     C#m
It's automatic
    E
I'm sure of it
      (break) B
No lie
         F#
So don't even try
   C#m                 E
To tell me that you're not the guy
    Abm               F#
Cuz I've been waiting all my life
    E                 Ebm
For someone just like you
	   C#m
But you're it
           E   (hold)
You're the ultimate you


Interlude:

B-F#-C#m-E

Guitar 2:
   B        F#         C#m     E
e|----|-------------|-------|-----|
B|----|-------------|-------|-----|
G|-11-|-11---13--13-|-13\11-|--16-|
D|--x-|--x----x---x-|--x\-x-|---x-|
A|--9-|--9---11--11-|-11\-9-|--14-|
E|----|-------------|-------|-----|


Verse 2: palm mute
Abm
You're the kind
             E
of guy who's hands
              B
and mind send shivers
       F#
up and down my spine
    Abm
You took my heart and
       E              B(harmonics) F#-E
put it back together again

       B           F#     E
e|-7*----------|-------|------|
B|----7*-7*-7*-|-------|------|
G|-------------|-11-11-|-9--9-|
D|-------------|--x--x-|-x--x-|
A|-------------|--9--9-|-7--7-|
E|-------------|-------|------|
       x2

Abm
You're the kind of
         E
guy that blows my mind
             B
But now it's my turn
            F#
You've been right
            C#m
in front of me
	     E
Everything I need
	     F# (hold)
Why didn't i see

Guitar 2: at "me, evrything I need..."
            C#m                 E           F#
e|------------------------|------------|----------|
B|------------------------|------------|----------|
G|-6--6--6--6--6--6--6--6-|-9--9--9--9-|-11-11-11-|
D|-x--x--x--x--x--x--x--x-|-x--x--x--x-|--x--x--x-|
A|-4--4--4--4--4--4--4--4-|-7--7--7--7-|--9--9--9-|
E|------------------------|------------|----------|


(Repeat Chorus 1)


Lead Solo: B-F#-C#m-E x2, G#m-F#-E-Ebm-C#m--E-F#

Guitar 2: /=slide, h=hammer, p=pull off, Vf=Very fast
          Tapping: L=left hand, R=right hand
      B                 F#           C#m            E
e|--7/14-----|----14--------14--16-|-14--|-12--11h12p11h12p11----|
B|-----------|-12--------12--------|-----|--------------------12-|
G|--------11-|--------11-----------|-----|-----------------------|
D|-----------|---------------------|-----|-----------------------|
A|-----------|---------------------|-----|-----------------------|
E|-----------|---------------------|-----|-----------------------|

   B            F#               C#m         E
e|-19-|-19h21--19\14-----14-|-14h16--19-|-/16--14-|
B|----|---------------16----|-----------|---------|
G|----|---------------------|-----------|---------|
D|----|---------------------|-----------|---------|
A|----|---------------------|-----------|---------|
E|----|---------------------|-----------|---------|

                Abm(Vf)                             F#(Vf)
e|-19-19-19-18-18-18-16-16-16-14-14-14-|-12-12-12-11-11-11-9-9-9-7-7-7-|
B|-------------------------------------|-------------------------------|
G|-------------------------------------|-------------------------------|
D|-------------------------------------|-------------------------------|
A|-------------------------------------|-------------------------------|
E|-------------------------------------|-------------------------------|

         E        Ebm
e|-7--9p7/11--9-|-h11-|
B|--------------|-----|
G|--------------|-----|
D|--------------|-----|
A|--------------|-----|
E|--------------|-----|

                           C#m(vf, tapping)
e|-----------------------------------------------------------------------|
B|-2-9-2-9-2-9-2-9-2-9-2-9-2-9-2-9-2-9-2-9-2-11-2-11-2-12-2-12-2-12-2-12-|
G|-----------------------------------------------------------------------|
D|-----------------------------------------------------------------------|
A|-----------------------------------------------------------------------|
E|-----------------------------------------------------------------------|
   L R L R L R L R L R L R L R L R L R L R L R  L R  L R  L R  L R  L R

      E        F#
e|-23--21-19-|-21--|
B|-----------|-----|
G|-----------|-----|
D|-----------|-----|
A|-----------|-----|
E|-----------|-----|


Chorus 2: Modulate from B to C#
       C#
You're it
	   Ab
You're the ultimate
     Ebm
It's automatic
    F#
I'm sure of it
      (break) C#
No lie
         Ab
So don't even try
   Ebm                 F#
To tell me that you're not the guy
       C#
You're it
	   Ab
You're the ultimate
     Ebm
It's automatic
    F#
I'm sure of it
      (break) C#
No lie
         Ab
So don't even try
   Ebm                 F#
To tell me that you're not the guy
    Bbm               Ab
Cuz I've been waiting all my life
    F#                Fm
For someone just like you
	   Ebm
But you're it
           F#  (hold)
You're the ultimate you


Outro:
C# Ab       Ebm
     You're it
           F#       C#(hold)
You're the ultimate you


Guitar 2: In outro
      C#               Ab            Ebm            F#             C#
e|--9/16-----|----16--------16--18-|-16--|-14--13h14p13h14p13----|-16-|
B|-----------|-14--------14--------|-----|--------------------14-|-14-|
G|--------13-|--------13-----------|-----|-----------------------|----|
D|-----------|---------------------|-----|-----------------------|----|
A|-----------|---------------------|-----|-----------------------|----|
E|-----------|---------------------|-----|-----------------------|----|
            
Submit corrections

comments powered by Disqus
↑ Back to top | Lindsay Lohan Chords for Ultimate. Lyrics for acoustic guitar and electric guitar. 1 Tablatures and chords are parodies/interpretations of the original songs. You may use it for private study, scholarship, research or language learning purposes only