» » »

Lindsay Lohan, Ultimate Bass tabs (ver.1)

Artists:  A B C D E F G H I J K L M N O P Q R S T U V W X Y Z # 

Ultimate Bass tabs (ver.1)

Lindsay Lohan Tabs
 Rating:
3.4/5 (5 votes)
Ultimate lessons Tabs too difficult? Try these video lessons and learn fast
1
                ultimate

standard tuning

intro
G|-----------------------------------|
D|-----------------------------------|
A|-/22-222----------44-444-/7-77-777-|
E|---------2-22-222------------------|

G|----------------------------------|
D|----------------------------------|
A|-22-222----------44-444-/7-77-777-|
E|---------2-22-222-----------------|

verse
G|-------------------------------------|
D|-------------------------------------|
A|-------------------22222222----------|
E|-44444444-00000000----------22222222-|

G|---------------------------|
D|---------------------------|
A|------------------22222222-|
E|44444444-00000000----------|

G|--------------------------------------|
D|--------------------------------------|
A|--------------------22222222----------|
E|-/44444444-00000000----------22222222-|

G|---------------------------------|
D|---------------------------------|
A|-4444444444444444-77777777-------|
E|---------------------------22222-|

chorus
G|-----------------------------------|
D|-----------------------------------|
A|-/22-222----------44-444-/7-77-777-|
E|---------2-22-222------------------|

G|----------------------------------|
D|----------------------------------|
A|-2-222-----------44-444-/7-77-777-|
E|--------2-22-222------------------|

|----------------------------------------------|
|----------------------------------------------|
|-----------------77-777-6-66-666-44444444-777-|
|-44-444-2-22-222------------------------------|

verse 2
G|-------------------------------------|
D|-------------------------------------|
A|-------------------22222222----------|
E|-44444444-00000000----------22222222-|

G|-------------------------------------|
D|-------------------------------------|
A|------------------22222222-----------|
E|-44444444-00000000----------22220000-|

end chorus
G|----------------------------------|
D|----------------------------------|
A|-44-444----------66-666-/9-99-999-|
E|--------4-44-444------------------|

G|---------------------------------|
D|---------------------------------|
A|-4-444----------66-666-/9-99-999-|
E|-------4-44-444------------------|

G|----------------------------------------------|
D|----------------------------------------------|
A|-----------------99-999-8-88-888-66666666-999-|
E|-66-666-4-44-444------------------------------|

outro
G|---------------------------------------|
D|---------------------------------------|
A|-44-444----------66-666-/9-99-999----9-|
E|--------4-44-444-----------------------|
            
Submit corrections

comments powered by Disqus
↑ Back to top | Lindsay Lohan Bass for Ultimate. Lyrics for acoustic guitar and electric guitar. 1 Tablatures and chords are parodies/interpretations of the original songs. You may use it for private study, scholarship, research or language learning purposes only