» » »

Running In The Family Tabs (ver.2)

Artists:  A B C D E F G H I J K L M N O P Q R S T U V W X Y Z # 

Running In The Family Tabs (ver.2)

Level 42
Rating:
5/5 (2 votes)

Hard to play? Try these video lessons and learn fast.
                (Intro)
Running In The Family
Level 42
Running In The Family 1987


The main hook is done with a keyboard but I've arranged it for guitar.

  
E|--3-2-3-0-0--0-0-2-|
B|--5-3---2-2--2-2-3-|
G|--4-4---2-2--2-2-4-|
D|-------------------|
A|-------------------|
E|-------------------|

The variation is this:

E|--5-3-2-3-0-0--0-0-2-|
B|--5-5-3---2-2--2-2-3-|
G|--6-4-4---2-2--2-2-4-|
D|---------------------|
A|---------------------|
E|---------------------|
            
Hard to play? Try these video lessons and learn fast. | Correct




comments powered by Disqus
↑ Back to top | Tablatures and chords are parodies/interpretations of the original songs. You may use it for private study, scholarship, research or language learning purposes only