» » »

Led Zeppelin, Ten Years Gone Tabs (ver.2)

Artists:  A B C D E F G H I J K L M N O P Q R S T U V W X Y Z # 

Ten Years Gone Tabs (ver.2)

Led Zeppelin Tabs
 Rating:
4/5 (4 votes)
Ten Years Gone lessons Tabs too difficult? Try these video lessons and learn fast
                E-5/7--5--2--0-------------------------------------------------|
B-5/7--5--2--0-------------------------------------------------|
G----------------9b11-9b11--9b11--9-7-------9b11r9p7----7h9p7--|
D-------------------------------------9--------------9---------|
A---------------------------------------10---------------------|
E--------------------------------------------------------------|

E-7----------------7h10p7-5h7p5-2--7h10p7-5h7p5-2--7h10p7-5--|
B-7----------------7h10p7-5h7p5-2--7h10p7-5h7p5-2--7h10p7-5--|
G------------------------------------------------------------|
D-----7----7-5-4---------------------------------------------|
A------------------------------------------------------------|
E------------------------------------------------------------|

E-----7--------------------------------------------------------|
B-7/8---7/12--------15-17b19---17b19--17b19--17-15-17-15-15----|
G---------------/16--------------------------------------------|
D--------------------------------------------------------------|
A--------------------------------------------------------------|
E--------------------------------------------------------------|

E-------14--15--17---17b19r17--------------17b19--15-17-15-17p15------|
B-17b19-------------------------15--17b19-----------------------------|
G-----------------------------------------------------------------16--|
D---------------------------------------------------------------------|
A---------------------------------------------------------------------|
E---------------------------------------------------------------------|

E----------------------------17-17-----------------8/10\8--|
B-15h17p15----17b19r17p15----------17b19r17-15-----8/10\8--|
G----------------------------------------------------------|
D----------------------------------------------------------|
A----------------------------------------------------------|
E----------------------------------------------------------|

E--7h10p7-5-----7h10p7-5h7p5-2--7h10p7-5h7p5-2--7h10p7-5h7p5-|
B--7h10p7-5-----7h10p7-5h7p5-2--7h10p7-5h7p5-2--7h10p7-5h7p5-|
G------------6-----------------------------------------------|
D------------------------------------------------------------|
A------------------------------------------------------------|
E------------------------------------------------------------|

E---------------------------------15-16-17-17b19-----17--|
B-7--7-7-7-7/12-------15-17-17b19----------------15------|
G-7--7-7-7--------/16------------------------------------|
D--------------------------------------------------------|
A--------------------------------------------------------|
E--------------------------------------------------------|

E--------------17-------------------------|
B-17b19r17-15-----17b19r17-15-17b19r17-15-|
G-----------------------------------------|
D-----------------------------------------|
A-----------------------------------------|
E-----------------------------------------|
            
Submit corrections

comments powered by Disqus
↑ Back to top | Led Zeppelin Tabs for Ten Years Gone. Lyrics for acoustic guitar and electric guitar. Tablatures and chords are parodies/interpretations of the original songs. You may use it for private study, scholarship, research or language learning purposes only