» » »

Led Zeppelin, Ten Years Gone Bass tabs (ver.3)

Artists:  A B C D E F G H I J K L M N O P Q R S T U V W X Y Z # 

Ten Years Gone Bass tabs (ver.3)

Led Zeppelin Tabs
 Rating:
4/5 (4 votes)
Ten Years Gone lessons Tabs too difficult? Try these video lessons and learn fast
                TEN YEARS GONE

As recorded by Led Zepplin

 Intro
  Q=76
 4/4
  Gtr I
|---------|---------|---------------|--------|
|---------|---------|---------------|--------|
|---------|---------|---------------|--------|
|---------|---------|-----5-5-3-5-1-|-(1)----|


|---------------|------------|----------------|
|---------------|------------|----------------|
|---------------|------------|----------------|
|-----5-5-3-5-1-|-(1)--------|-5----5-5-3-5-1-|


                                                    2/4
|------------|---------------|---------------------|------|
|------------|-------2h4--4--|-2-2-2-2-------------|------|
|------------|---------------|---------5-5-5-5-5-5-|-3----|
|-(1)--------|-5---5---------|---------------------|------|


 4/4
                                                                     3x
|-----------------------||--------------------|----------------------||
|---------2-3-2---------||o-------------------|----------7----------o||
|-----0-3---------------||o-------------------|--------7------------o||
|-0-1-----------5-5-5-5-||---5-5-5-5--5-5-5-5-|--5-7h9------5-5-5-5--||


|-------------------|-------------------|-----|
|-------------------|----------7-(7)----|-----|
|-------------------|--------7----------|-----|
|--5-5-5-5--5-5-5-5-|--5-7h9------------|-----|


 Verse 1
|---------------|------------|----------------|------------|----------------|
|---------------|------------|----------------|------------|----------------|
|---------------|------------|----------------|------------|----------------|
|-----5-5-3-5-1-|-(1)--------|-5----5-5-3-5-1-|-(1)--------|-5----5-5-3-5-1-|


                                                    2/4
|------------|---------------|---------------------|------|
|------------|-------2h4--4--|-2-2-2-2-------------|------|
|------------|---------------|---------5-5-5-5-5-5-|-3----|
|-(1)--------|-5--5----------|---------------------|------|


                         Verse 2
 4/4
|-----------------------|-------------------|---------------------|
|---------2-3-2---------|-------------------|----------7----------|
|-----0-3---------------|-------------------|--------7------------|
|-0-1-----------5-5-5-5-|--5-5-5-5--5-5-5-5-|--5-7h9------5-5-5-5-|


|--------------------|---------------------|--------------------|
|--------------------|----------7----------|--------------------|
|--------------------|--------7------------|--------------------|
|-3-3-5-5-5--5-5-5-5-|--5-7h9------5-5-5-5-|-3-3-3-5-5--5-5-5-5-|


|---------------------|--------------------|-------------------|-----|
|----------7----------|--------------------|----------7-(7)----|-----|
|--------7------------|--------------------|--------7----------|-----|
|--5-7h9------5-5-5-5-|-3-3-5-5-5--5-5-5-5-|--5-7h9------------|-----|


 Verse 3
|---------------|------------|---------------|
|---------------|------------|---------------|
|---------------|------------|---------------|
|-----5-5-3-5-1-|-(1)--------|-----5-5-3-5-1-|


|------------|----------------|--------|
|------------|----------------|--------|
|------------|----------------|--------|
|-(1)--------|-5----5-5-3-5-1-|-(1)----|


|---------------|---------------------|------|
|-------2h4--4--|-2-2-2-2-------------|------|
|---------------|---------5-5-5-5-5-5-|-3----|
|-5--5----------|---------------------|------|


 Guitar Solo
|--------------|------------------------|----------------------|
|-0---0-(0)----|-5-5-0-0-5-(5)--5-5-0-1-|-2-2-2-2-2-2-0---2-0--|
|--------------|------------------------|---------------2------|
|--------------|------------------------|----------------------|


|--------------|----------------|--------------------------|
|--0--0-(0)----|-0---0-0--0-2-4-|-5-0-5-0-5-(5)--(5)-0-5---|
|--------------|----------------|------------------------2-|
|--------------|----------------|--------------------------|


|-------------------------|-----------------|-----------------|
|-2-2-2-2-2-2-2-2-0---2-0-|-(0)-0--0-(0)----|-0---0-0------0--|
|-------------------2-----|-----------------|----------0-2----|
|-------------------------|-----------------|-----------------|


|----------------------------|-------------------------|-----------------|
|---0-(0)-0-5-(5)--(5)-0---0-|-2-2-(2)-2-2-(2)-2-2-2-0-|-(0)-0--0-(0)----|
|------------------------2---|-------------------------|-----------------|
|-3--------------------------|-------------------------|-----------------|


|--------------------|------------------------------|--------------------------|
|-0---0-(0)--(0)-2-4-|-5-5-0-(0)-0-5-(5)--(5)-0---0-|-2-2-2-2-2-2-(2)-0---2-0--|
|--------------------|--------------------------2---|-------------------2------|
|--------------------|------------------------------|--------------------------|


 Bridge
|--------------------------|--------------------|----------7-9-9-11-11-9-|
|-(0)-0--0-(0)-------------|--------------------|----------5-7-7--9--9-7-|
|----------------0-0-2-2-0-|-0----------------5-|-(5)----5---------------|
|--------------3-----------|---3-3-3--3-3-(3)---|------------------------|


|-9-7-7-7-7-7-7-7-(7)---|-------------7-9-9-11-11-9-|-9-7-7-7-7-7-7-7-(7)---|
|-7-5-5-5-5-5-5-5-(5)---|-------------5-7-7--9--9-7-|-7-5-5-5-5-5-5-5-(5)---|
|---------------------5-|-(5)---5-(5)---------------|---------------------5-|
|-----------------------|---------------------------|-----------------------|


                                                     Guitar Break
|-------------7-9-9-11-11-9-|-9-7-7-7-7-7-7-7-(7)---|-----------2-------|
|-------------5-7-7--9--9-7-|-7-5-5-5-5-5-5-5-(5)---|---------2---2-1-0-|
|-(5)---5-(5)---------------|---------------------0-|-(0)---0-----------|
|---------------------------|-----------------------|-------------------|


|----------------|------------7-7-7-------|------------------|
|-(0)---0-7-0--5-|-(5)--5-5-5-------5-----|------------------|
|----------------|--------------------5-3-|-(3)-3-3----3-----|
|----------------|------------------------|--------------3-4-|


                                                              2/4
|---------------|---------------------|----------------------|--------|
|-----------7---|---------7h9-7-----5-|-(5)-5-(5)-5-5----5---|--------|
|-------7-7---5-|-(5)-5-5-------5-5---|---------------5----3-|-(3)----|
|-5--5----------|---------------------|----------------------|--------|


                           Verse 4
 4/4
                                                                     5x
|-----------------------||--------------------|----------------------||
|---------2-3-2---------||o-------------------|----------7----------o||
|-----0-3---------------||o-------------------|--------7------------o||
|-0-1-----------5-5-5-5-||---5-5-5-5--5-5-5-5-|--5-7h9------5-5-5-5--||


|-------------------|-------------------|-----|
|-------------------|----------7-(7)----|-----|
|-------------------|--------7----------|-----|
|--5-5-5-5--5-5-5-5-|--5-7h9------------|-----|


|---------------|------------|----------------|------------|----------------|
|---------------|------------|----------------|------------|----------------|
|---------------|------------|----------------|------------|----------------|
|-----5-5-3-5-1-|-(1)--------|-5----5-5-3-5-1-|-(1)--------|-5----5-5-3-5-1-|


                                                    2/4
|------------|---------------|---------------------|------|
|------------|-------2h4--4--|-2-2-2-2-------------|------|
|------------|---------------|---------5-5-5-5-5-5-|-3----|
|-(1)--------|-5--5----------|---------------------|------|


                           Outro
 4/4
                                                                   16x
|-----------------------||--------------------|---------------------||
|---------2-3-2---------||o-------------------|----------7-(7)-----o||
|-----0-3---------------||o-------------------|--------7-----------o||
|-0-1-----------5-5-5-5-||---5-5-5-5--5-5-5-5-|--5-7h9--------------||
            
Submit corrections

comments powered by Disqus
↑ Back to top | Led Zeppelin Bass for Ten Years Gone. Lyrics for acoustic guitar and electric guitar. Tablatures and chords are parodies/interpretations of the original songs. You may use it for private study, scholarship, research or language learning purposes only