» » »

Ten Years Gone Bass tabs (ver.2)

Artists:  A B C D E F G H I J K L M N O P Q R S T U V W X Y Z # 

Ten Years Gone Bass tabs (ver.2)

Led Zeppelin
Rating:
0/5 (0 votes)

Hard to play? Try these video lessons and learn fast.
                
Here is the BTab to "Ten Years Gone"

By Led Zeppelin

I hope its remotely close to correct.



	 E    E     S      S    W+

-------------------------------------
-------------------------------------
-------------------------------------
------5----5-----3------5----1-------


-------------------------------------
-------------------------------------
----------------9-----9-----77777777-
-----5----5--------------------------


-------------------------------------
5---5---5--5--3-------------0--3--2--
-----------------------0--3----------
------------------0--1---------------

  Series of A's    S HS  E

-------------------------------------
-------------------------7-----------
-------------------4-7---------------
---55555555555-----------------------


  Series of A's    S HS  E

-------------------------------------
-------------------------7-----------
-------------------4-7---------------
---55555555555-----------------------


	 E    E     S      S    W+

-------------------------------------
-------------------------------------
-------------------------------------
------5----5-----3------5----1-------

Then, As it was, then again it will be...

	 E    E     S      S    W+

-------------------------------------
-------------------------------------
-------------------------------------
------5----5-----3------5----1-------


	 E    E     S      S    W+

-------------------------------------
-------------------------------------
-------------------------------------
------5----5-----3------5----1-------


-------------------------------------
-------------------------------------
----------------9-----9-----77777777-
-----5----5--------------------------


-------------------------------------
5---5---5--5--3-------------0--3--2--
-----------------------0--3----------
------------------0--1---------------


Blind skies of fortune........

  Series of A's    S HS  E

-------------------------------------
-------------------------7-----------
-------------------4-7---------------
---55555555555-----------------------


  Series of A's    S HS  E

-------------------------------------
-------------------------7-----------
-------------------4-7---------------
---55555555555-----------------------


  Series of A's    S HS  E

-------------------------------------
-------------------------7-----------
-------------------4-7---------------
---55555555555-----------------------


This general pattern continues with
a combination of the different above
measures until the guitar solo

---------------5-------5--------------
-5--5--55--55-----5-------------------
--------------------3-----------5--6--
--------------------------3--3--------


-------------------------------------
-------------------------------------
--777777777777--7------5555555555----
--------------7----3-----------------


------------------------------------------
--2--4--5--------5--5----------2222222222-
-----------5-5-5-------5-----2------------
-------------------------2----------------


Since I am not too good at figuring this
stuff out, this is the basic idea duing the
guitar solo.  After the solo, the bass line
repeats (more or less) to the beginning.
I am sorry if this is not all that accurate,
but I am just trying to get a start on the song.
I hope I help somebody out!!

Ryan Klein



HS = Hammer on to Sixteenth Note
E = Eigth Note
W+ = Extended Whole note
            
Hard to play? Try these video lessons and learn fast. | Correct




comments powered by Disqus
↑ Back to top | Tablatures and chords are parodies/interpretations of the original songs. You may use it for private study, scholarship, research or language learning purposes only