» » »

Led Zeppelin, Ramble On Bass tabs (ver.2)

Artists:  A B C D E F G H I J K L M N O P Q R S T U V W X Y Z # 

Ramble On Bass tabs (ver.2)

Led Zeppelin Tabs
 Rating:
4/5 (4 votes)
Ramble On lessons Tabs too difficult? Try these video lessons and learn fast
1
                
                                Ramble On                                  


                                                               Led Zeppelin
Bass



                                     E.  S E  E  H         
G||-------|-------|-------|-------|-----------------------|
D||-------|-------|-------|-------|-----------9--L--------|
A||-------|-------|-------|-------|--7--------------------|
E||-------|-------|-------|-------|-----------------------|


  E  E  E     E   E  Q.        E  E  E      E  E   E  E  E   
-----------9g11---L--9------|-----------12g13-----11-----9--|
--7-------------------------|-------------------------------|
----------------------------|--7----------------------------|
----------------------------|-------------------------------|


  E   E  E  E  S S S S  S S  E       Q    E  E  H         
--------------------------9-----||-----------------------|
-----11-----9--L-x-7-9-11---11--||*----------9--L--------|
--------------------------------||*--7-------------------|
--------------------------------||-----------------------|


  E  E  E     E   E  Q     E     E  E  E      E  E   E  E  E   
-----------9g11---L--9--------|-----------12g13-----11-----9--|
--7-----------------------11--|-------------------------------|
------------------------------|--7----------------------------|
------------------------------|-------------------------------|


  E   E  E  E  E  S S  S S  E   4x  Q    E  E  E  Q    E   
--L----------------------9------||------------------------|
-----11-----9--L--7-9-11---11--*||------------------------|
-------------------------------*||------------------------|
--------------------------------||--0-------2-----4----L--|


  Q    E  E  E  S S S S E     Q    E  E  E  Q    E   
---------------------------|------------------------|
----------------2-2-L------|------------------------|
--0----x--4-----------4-2--|------------------------|
---------------------------|--0-------2-----4----4--|


  E  E  E  E  E  E  S S E     Q    E  E  S E  S S S S S  
---------------------------|----------9--L--------------|
-----------------2--2------|----------------------------|
--0--2-----4----------4-2--|-------7------------------7-|
---------------------------|--0------------0--4---7-----|


  S S S S S S S S S S S S S S S S    E.  S E  E  S S S S S S S S  
----------9-----7-L---7-------7-9-|------------------------------|
--7-7-7-7---7-7-----7---7-7-7-----|--------9---------------------|
----------------------------------|--7---x----7--L-------------7-|
----------------------------------|----------------0---4---7-----|


  S S S S S S S S S S S S S S S S    E.  S E  E  S S S S S S S S  
----------9-------7-------7---7-9-|--------9---------------------|
--7-7-7-7---7-7-7---7-7-7---7-----|------------------------------|
----------------------------------|--7---7----7--L-------------7-|
----------------------------------|----------------0---4---7-----|


  S S S S S S S S S S S S S S S S    E.  S E  E  S S S S S S S S  
----------9-----7-L---7-------7-9-|------0-9---------------------|
--7-7-7-7---7-7-----7---7-7-7-----|------------------------------|
----------------------------------|--7--------7--L-------------7-|
----------------------------------|----------------0---4---7-----|


  S S S S S S S S S S S S S E  S      Q    E  E  H         
----------9-----7-L---7-7-8-9----||-----------------------|
--7-7-7-7---7-7-----7----------7-||*----------9--L--------|
---------------------------------||*--7-------------------|
---------------------------------||-----------------------|


  E  E  E     E   E  Q     E     E  E  E      E  E   E  E  E   
-----------9g11---L--9--------|-----------12g13-----11-----9--|
--7-----------------------11--|-------------------------------|
------------------------------|--7----------------------------|
------------------------------|-------------------------------|


  E   E  E  E  E  S S  S S  E        Q    E  E  H         
--L----------------------9------||-----------------------|
-----11-----9--L--7-9-11---11--*||*----------9--L--------|
-------------------------------*||*--7-------------------|
--------------------------------||-----------------------|


  E  E  E     E   E  E   E  E     E  E  E      E  E   E  E  E   
-----------9g11---L--9---------|-----------12g13-----11-----9--|
--7---------------------11--9--|-------------------------------|
-------------------------------|--7----------------------------|
-------------------------------|-------------------------------|


  E   E  E  E  E  S S  S S  E       S S S S E  E  S E  S S S S S  
--L----------------------9------||----------9--9--L--------------|
-----11-----9--L--7-9-11---11--*||-------------------------------|
-------------------------------*||--7-7-7-7--------------------7-|
--------------------------------||------------------0--4---7-----|


  S S S S S S S S S S S S S S S S      E.  S E  E  S S S S S S S S  
----------9-----7-L---7-------7-9-||-------0-9---------------------|
--7-7-7-7---7-7-----7---7-7-7-----||*------------------------------|
----------------------------------||*--7--------7--L-------------7-|
----------------------------------||-----------------0---4---7-----|


  S S S S S S S S S S S S S S S S  3x  Q    E    E  E  E  S  S S S  
----------9-----7-L---7-------7-9--||------------------------------|
--7-7-7-7---7-7-----7---7-7-7-----*||--7----7--5g7--L--7-----------|
----------------------------------*||---------------------5h-7-7-7-|
-----------------------------------||------------------------------|


  E  S  S S S E  S S S  S S S S  S      E.  S E  E  S S S S   E    E   
--------------7----9-7h-9-L-9------|----------------------------------|
-----5h-7-L-7-----------------5h-7-|--5g7---7-7--7--L-7-7-7-----------|
--0--------------------------------|------------------------5g7--5g7--|
-----------------------------------|----------------------------------|


    E.  S E  E  E  S  S S S E       E.  S E  E  H         
--------------------------7-9--||------------------------|
--5g7---7-7--7--L--7h-9-L------||*-----------9--L--------|
-------------------------------||*--7--------------------|
-------------------------------||------------------------|


  E  E  E     E   E  Q.        E  E  E      E  E   E  E  E   
-----------9g11---L--9------|-----------12g13-----11-----9--|
--7-------------------------|-------------------------------|
----------------------------|--7----------------------------|
----------------------------|-------------------------------|


  E   E  E  E  S S S S  S S  E        Q    E  E  H         
--------------------------9------||-----------------------|
-----11-----9--L-x-7-9-11---11--*||*----------9--L--------|
--------------------------------*||*--7-------------------|
---------------------------------||-----------------------|


  E  E  E     E   E  Q     E     E  E  E      E  E   E  E  E   
-----------9g11---L--9--------|-----------12g13-----11-----9--|
--7-----------------------11--|-------------------------------|
------------------------------|--7----------------------------|
------------------------------|-------------------------------|


  E   E  E  E  E  S S  S S  E       Q    E  E  E  Q     E    
--L----------------------9------||--------------------------|
-----11-----9--L--7-9-11---11--*||--------------------------|
-------------------------------*||--------------------------|
--------------------------------||--0----x--2-----4----(5)--|


  E  E  E  E  E  E  S S E     Q    E  E  E  Q    E   
---------------------------|------------------------|
-----------------2--2------|------------------------|
--0--2-----4----------4-2--|------------------------|
---------------------------|--0-------2-----4----4--|


  E  E  E  E  E  S S S S E     E.  S E  E  S S S S S S S S  
----------------------------|------------------------------|
-----------------2-2-L------|--------2---------------------|
--0--2-----4-----------4-2--|------x---------------------7-|
----------------------------|--0--------0----0---4---7-----|


  S S S S S S S S S S S S S S S S    E.  S E  E  S E  S S S S S  
----------9-----7-L---7-------7-9-|------0-9--------------------|
--7-7-7-7---7-7-----7---7-7-7-----|-----------------------------|
----------------------------------|--7--------7--L------------7-|
----------------------------------|----------------0--4---7-----|


  S S S S S S S S S S S S S S S S    E.  S E  E  S E  S S S S S  
----------9-----7-L---7-------7-9-|------0-9--------------------|
--7-7-7-7---7-7-----7---7-7-7-----|-----------------------------|
----------------------------------|--7--------7--L------------7-|
----------------------------------|----------------0--4---7-----|


  S S S S S S S S S S S S S S S  S    E.  S E  E  S E  S S S S S  
----------9-----7-L---7------------|------0-9--------------------|
--7-7-7-7---7-7-----7---7-7-7-7h-9-|-----------------------------|
-----------------------------------|--7--------7--L------------7-|
-----------------------------------|----------------0--4---7-----|


  S S S S S S S S S S S S S S S S    E.  S E  E  S E  S S S S S  
----------------------------------|-----------------------------|
----------------------------------|-----------------------------|
--------7-7---------5-------4-----|------7-7------------------7-|
--7-7-7-----5-5-3-L---3-0-2---2-0-|--0--------0--L-0--4---7-----|


  S S S S S S S S S S E  S E  S    S S S S S S E  S E  S S E  S  
----------9-----7-L-7-8----9----|--------------9--L-------------|
--7-7-7-7---7-7----------x----9-|------------9---------6---9--8-|
--------------------------------|--7-7-7-7-L--------7-----------|
--------------------------------|-------------------------------|


  S S E  S S S S S S S S S S S S    S E  S E  E  S E  S S E  S  
---------------------------------|-------x-9-------------------|
--7----------------0-5-6-7-------|-----------------------------|
----7----4-5-6-7-L---------0-4-5-|--7-7-------7--L-------------|
------5--------------------------|-----------------0--4---7--6-|


  S S S S S S S S S S S S S S S S    E.  S E  E  S E  S S E  S  
----------------------------------|------0-9-------------------|
----------------------------------|----------------------------|
----------------------4-4-5-5-6-6-|--7--------7--L-----------7-|
--5-5-5-5-5-5-5-5-5-5-------------|----------------0--4---7----|


  S S S S S S S S S S S S S S S S    E.  S   E  E  S E  S S E  S  
----------9---------7-------6-----|------------------------------|
--7-7-7-7---7-7-0-5---5-x-4---4-2-|--2---------------------------|
----------------------------------|------0-----------------------|
----------------------------------|--------6g7--0--L-0--1-L-2--3-|


  S S S S S E  S S S S S S S S S    E.  S E  E  S  S S S S S S S  
---------------------------------|------0-9-------12---9---7-----|
---------------0-4-5-6-7-L-------|-----------------------------9-|
------4-5-6-7--------------0-4-5-|--7--------7--L----------------|
--5-5----------------------------|-------------------------------|


  S S S S S S S S S S S S S S S S    E.  S E  E  S S S S S S S S  
----------------------------------|------0-9---------------------|
--7-0---7-------5-----------5-----|----------------7-6-----------|
------4---4-5-------6---7-------x-|--7--------7--L-----7---5---7-|
----------------------------------|------------------------------|


  E.  S S S S S S S S S S E  S   
-------------------------------||
----------7-------7-------5----||
--------4---4-5-L---5-6-7----0-||
--5---x------------------------||




Duration Legend
---------------
W - whole
H - half
Q - quarter
E - 8th
S - 16th
T - 32nd
X - 64th
. - note dotted
|-n-|  - n-tuplets


Tablature Legend
----------------
L - tied note
x - dead note
g - grace note
(n) - ghost note
> - accentuded note
NH - natural harmonic
AH - artificial harmonic
TH - tapped harmonic
SH - semi harmonic
PH - pitch harmonic
h - hammer on
p - pull off
b - bend
br - bendRelease
pb - preBend
pbr - preBendRelease
brb - bendReleaseBend
\n/ - tremolo bar dip
\n - tremolo bar dive
-/n - tremolo bar Release up
/n\ - tremolo bar inverted dip
/n - tremolo bar return
-\n - tremolo bar Release down
S - shift slide
s - legato slide
/ -  slide into from below or out of upwards
\ -  slide into from above or out of downwards
~ - vibrato
W - wide vibrato
tr - trill
TP - tremolo picking
T - tapping
S - slap
P - pop
< - fade in
^ - brush up
v - brush down
            
Submit corrections

comments powered by Disqus
↑ Back to top | Led Zeppelin Bass for Ramble On. Lyrics for acoustic guitar and electric guitar. 1 Tablatures and chords are parodies/interpretations of the original songs. You may use it for private study, scholarship, research or language learning purposes only