>
 >
Ramble On

Ramble On Bass Tabs

Led Zeppelin - Ramble On chords, tabs, tablatures, lyrics

Guitar lessons | Add/correct | Request | Top 50 tabs Artists:  A B C D E F G H I J K L M N O P Q R S T U V W X Y Z 0-9

Ramble On Bass Tabs – Led Zeppelin

CD, Sheet music, Poster

Do you like Ramble On? Share with your friends now
Bass TabsBass Tabs v2Bass Tabs v3Drum TabsTabsTabs v2Tabs v3Tabs v4
Ramble On by Led Zeppelin

standard tuning

G----------|
D------9~--|
A-7--------|
E----------|

G-------9h11~--9------------12h13----11----9-----------------------9------|
D-7---------------------------------------------11----9~-X-7-9--11---11/--|
A---------------------7---------------------------------------------------|
E-------------------------------------------------------------------------|

1st Verse  (0:20)  (X4)
G----------------------9h11~--9----------12h13---11----9~----------------9----|
D------9~--------7---------------11/----------------------11---9~--7-9\11-11--|
A-7-------------------------------------7-------------------------------------|
E-----------------------------------------------------------------------------|

1st Pre-Chorus  (0:59)
G-------------------------------------------|
D---------------------------------2-2~------|
A---------------------0----X-4---------4-2--|
E-0------2----4---4-------------------------|

G--------------------------------------------|
D----------------------------------2--2------|
A----------------------0--2---4---------4-2--|
E-0------2----4----4-------------------------|

1st Chorus  (1:09)
G----------9~----------------|
D----------------------------|
A--------7----------------7--|
E-0-----------0---4---7------|

G----------9-----7~---7-------7-9-----------------------------|
D-7-7-7--7---7-7----7---7-7-7------------9--------------------|
A----------------------------------7---X----7~-------------7--|
E----------------------------------------------0---4---7------|

G---------9-------7-------7---7-9-----------9--------------------|
D-7-7-7-7---7-7-7---7-7-7---7------------------------------------|
A------------------------------------7----7----7~-------------7--|
E-------------------------------------------------0---4---7------|

G---------9-----7~----7-------7-9--------0-9--------------------|
D-7-7-7-7---7-7----7----7-7-7-----------------------------------|
A-----------------------------------7---------7~-------------7--|
E------------------------------------------------0---4---7------|

G---------9-----7~---7-7-8-9-----|
D-7-7-7-7---7-7----7----------7--|
A--------------------------------|
E--------------------------------|

2nd Verse  (1:30)
G------------------------9h11----9--------|
D-9~--------------7-------------------11--|
A-----------------------------------------|
E-----------------------------------------|

G--------12h13~--11-----9~-------------------9------------------|
D---------------------------11~-X-9~--7-9\11---11/----------9~--|
A-7--------------------------------------------------7----------|
E---------------------------------------------------------------|

G--------9h11~--9------------------X-12h13----11----9~-------------------9----|
D-7--------------------11/---------X--------------------11/---9~--7-9\11---11-|
A-----------------------------7----X------------------------------------------|
E----------------------------------X------------------------------------------|

1st Interlude  (1:47)
G------X--------------------X-9h11~-9----------------X-12h13~-11----9~-------|
D------X--9~----------7-----X-----------11--9--------X------------------11---|
A-7----X--------------------X-------------------7----X-----------------------|
E------X--------------------X------------------------X-----------------------|

G-----------9-------------X--------------------9h11~-9-----------|
D-X-7--9-11---11/---------X--9~--------7----X------------11--9/--|
A-------------------7-----X-----------------X--------------------|
E-------------------------------------------X--------------------|

G-------X--12h13----11----9-----------------------9------|
D-------X-----------------------11----9~-X-7-9\11---11/--|
A-7-----X------------------------------------------------|
E-------X------------------------------------------------|

2nd Chorus  (2:06)
G---------9---9~----------------------9-----7~---7-----7-9--|
D-----------------------------7-7-7-7---7-7----7---7-7------|
A-7-7-7-7------------------7--------------------------------|
E----------------0---4--7-----------------------------------|

G----0-9----------------------------9-----7~---7-------7-9--|
D---------------------------7-7-7-7---7-7----7---7-7-7------|  X3
A-7-------7~-------------7----------------------------------|
E------------0---4---7--------------------------------------|

2nd Interlude  (2:25)
G------------------------------------------------7----9-7h9~-9------|
D-7----------7--5\7~----7----------------5\7~-7----------------5h7--|
A---------------------------5h7-7-7--0------------------------------|
E-------------------------------------------------------------------|

G---------------------------------------------------7h9--|
D-5h7----7-7--7~-7-77-----------5h7----7-7-7~--7\9~------|
A---------------------5h7--5h7---------------------------|
E--------------------------------------------------------|

3rd Verse  (2:35)
G------X-------------X--9h11~--9------------X--11\13~---11-----9~----------|
D------X--9~---7-----X----------------------X----------------------11---9--|
A-7----X-------------X----------------7-----X------------------------------|
E------X-------------X----------------------X------------------------------|

G--------9------|
D-7-9\11---11/--|
A---------------|
E---------------|

(X3)
G---|--------------9h11~--9---------------12h13~--11---9~----------------9----|
D---|---7h9~----7-------------11---9----------------------11---9~--7-9\11--11-|
A-7-|----------------------------------7--------------------------------------|
E---|-------------------------------------------------------------------------|


2nd Pre-Chorus  (3:14)
G-------------------------------------------------------------------|
D------------------------------------2--2---------------------------|
A------------------------0-2----4---------4-2-----------------------|
E-0-------X-2----4---5--------------------------0-----2----4-----4--|

G-----------------------|
D-------------2-2~------|
A-0-2----4---------4-2--|
E-----------------------|

Outro-Chorus  (3:23)
G-------------------------------------9-----7~---7-------7-9--|
D--------2--------------------7-7-7-7---7-7----7---7-7-7------|
A------X-------------------7----------------------------------|
E-0--------0---0---4---7--------------------------------------|

G----0-9--------------------------9-----7~---7-------7-9--|
D-------------------------7-7-7-7---7-7----7---7-7-7------|
A-7-------7~----------7-----------------------------------|
E------------0--4--7--------------------------------------|

G------0-9--------------------------9-----7~---7------------|
D---------------------------7-7-7-7---7-7----7---7-7-7-7h9--|
A-7---------7~----------7-----------------------------------|
E--------------0--4--7--------------------------------------|

G------0-9--------------------------------------------------|
D-----------------------------------------------------------|
A-7---------7~----------7---------7-7--------5-------4------|
E--------------0--4--7------7-7-7-----5-5-3~---3-0-2---2-0--|

G---------------------------------9-----7~-7-8----9-----|
D-------------------------7-7-7-7---7-7---------X----9--|
A----7-7--------------7---------------------------------|
E-0-------0~-0--4--7------------------------------------|

(3:51)
G------------9~-------------------------------------------------|
D----------9--------6--9--8--7---------------0-5-6-7------------|
A-7-7-7-7~------7--------------7----4-5-6-7~---------0-4-5--77--|
E--------------------------------5------------------------------|

G-X-9-------------------------------------------------------|
D-----------------------------------------------------------|
A------7~------------------------------------4-4-5-5-6-6-7--|
E---------0---4---7---6--5-5-5-5-5-5-5-5-5-5----------------|

G-0-9--------------------------9---------7-------6------|
D----------------------7-7-7-7---7-7-0-5---5-X-4---4-2--|
A------7~----------7------------------------------------|
E---------0--4--7---------------------------------------|

G------------------------------------------------------------|
D-2--------------------------------------0-4-5-6-7~----------|
A------0------------------------4-5-6-7-------------0-4-5-7--|
E--------6h7--0~-0--1~-2--3\5-5------------------------------|

G-0-9-----12--9--7--------------------------------------0-9--|
D-------------------9---7-0---7------5--------5--------------|
A------7~-------------------4---4-5-----6--7-----X--7--------|
E------------------------------------------------------------|

G----------------------------------------------|
D----7-6------------------7------7-------5-----|  Fade Out
A-7~-----7--5--7--------4---4-5~---5-6-7----0--|
E-----------------5---X------------------------|





Comments


Popular Led Zeppelin tabs & chords
Tea For One 2 Bass Tabs
Going To California Chords
In My Time Of Dying Tabs
Kashmir 4 Tabs
Out On The Tiles 1 Tabs
Over The Hills And Far Away 1 Tabs
Swan Song Tabs
The Battle Of Evermore Tabs
Wah Wah Song Tabs
You Shook Me 2 Tabs


Song lyrics



↑ Back to top | Tablatures and chords are parodies/interpretations of the original songs. You may use it for private study, scholarship, research or language learning purposes only
© 2014 AZChords.com Contact us | Privacy policy | DMCA | Add/correct tabs | Request tabs | Top 50 tabs