» » »

Led Zeppelin, Ramble On Tabs (ver.1)

Artists:  A B C D E F G H I J K L M N O P Q R S T U V W X Y Z # 

Ramble On Tabs (ver.1)

Led Zeppelin Tabs
Rating:
0/5 (0 votes)
Ramble On lessons Tabs too difficult? Try these video lessons and learn fast
                RAMBLE ON Guitar Tab
--------------------
                                                                                    
Goat67


Riff.1
E-|---------------0----------|-----0----------------------0-------------------|
B-|--9---------0--0----------|--5--5----5--5--5--5--5--5--5--------0----------|
G-|--9---9--9--7--9----------|--6--6h7--7--7--7--7--7--7--6--6--6--6----------|
D-|--9---9--9--7--7---0--0---|--7--7----7--7--7--7--7--7--7--7--7--5--7-------|
A-|--7---7--7--7--9---0--0---|--0--0----0-----0--0--0--0--------0-----7-------|
E-|---------0------------0---|----------------------------------------0-------|
                                                                               
Riff.1
E-|--------------0---------0--------------|----0------------------------------|
B-|--------9--9--0---------0--------------|----5----5-5-5---5---5--5--5----5--|
G-|--7/9---9--9--7--7-7----9--9-9-9-------|-6--6h7--7-7-7-7-6h7-7--7--6h7--7--|
D-|--------9--9--7--7-7-7--7--7-7-7--0--0-|-7--7----7-7-7-7-7---7--7--7----7--|
A-|--9/11--7--7--7---------9---------0--0-|-0-----------0---0---0--0--0----0--|
E-|-----------0-------------------------0-|-----------------------------------|
                                                                               
                                                                               
Riff.2 (electric) is a clean electric fill during the lyrics, "Ah, sometimes 
I grow so tired, but I know one thing I've got to do!"  Riff.2 (acoustic) is
the acoustic part played behind Riff.2 (electric).  The chord pattern is
E, F#m7, G#m7 | A, F#m7, E.

Riff.2 (electric)
E-|-0---0-----0------------|-------------0---0---------|-0--------0-----------|
B-|-0----0-0--0---0-0----0-|-0----0--0---0-0---0-------|---------0--0--0-0---0|
G-|-11-----9--9-----9h11---|-7p6-----6p4---------------|b11(13)p9---9----9h11-|
D-|------------------------|---------------------7p6---|----------------------|
A-|------------------------|-------------------------7-|----------------------|
E-|------------------------|---------------------------|----------------------|
    ^play this measure the                              ^ extra addition to 
     first time -- goto the                               measure one to give
     end measure after that                               the bend in the riff 

Riff.2 (acoustic)                                                                               
E-|-4---------------------------|--0----------------0-------------------------|
B-|----------2------7-----------|--5-----------2----0-------------------------|
G-|-1--------2------4--4--4-----|--6-----------2----1-------------------------|
D-|----------2------4--4--4--0--|--7--7--------2----2-------------------------|
A-|-2--2-----4------6--6--------|--0--0-0--7---4----2-------------------------|
E-|-0-----0--2--0---4-----------|----------0---2----0-------------------------|
                                                                               

These two riffs go on top of each other to make the sound more full.  These
start at "Ramble on, now's the time, the time is now.  Sing my song..."

Riff.3 (electric)
E-|--------------------|-----------------------------2---2--3-----------------|
B-|-9------------------|--3/5-----5--5\3---3--3------3---3--3-----------------|
G-|-9--9--9--7--9\-----|-------------------------0-------2--------------------|
D-|-9--9--9--7--7\-----|--5/7--------7\5------5--0----------------------------|
A-|-7--7--7--7--9\-----|------------------------------------------------------|
E-|--------------------|------------------------------------------------------|
                                                                               
Riff.3 (acoustic)
E-|--------------------|-------0----------0---0----------2--3-----------------|
B-|--------------------|----5--5--5--5\3--3---3----------3--3-----------------|
G-|-9--9--9--7--9\-----|-------0--0-------0---0--0-0-----2--0-----------------|
D-|-9--9--9--7--7\-----|----7--------7\5---------0-0-----0--------------------|
A-|-7--------7--9\-----|------------------------------------------------------|
E-|--------------------|------------------------------------------------------|
                                                                               

These riffs are for the first solo.  They harmonize quite nicely.

Solo.1 (gtr1)                                                                               
E-|---------|-----------------------------12----------------------------------|
B-|-15------|-15p14h15--15p14h15-15p14h15-----15-14-15------------------------|
G-|---------|-----------------------------------------------------------------|
D-|---------|-----------------------------------------------------------------|
A-|---------|-----------------------------------------------------------------|
E-|---------|-----------------------------------------------------------------|
                                                                               
Solo.1 (gtr2)                                                                               
E-|---------|-----------------------------------------------------------------|
B-|-12------|-12p10h12--12p10h10-12p10h12-14--12-10-12------------------------|
G-|---------|-----------------------------------------------------------------|
D-|---------|-----------------------------------------------------------------|
A-|---------|-----------------------------------------------------------------|
E-|---------|-----------------------------------------------------------------|
                                                                               
                                                                               
Here is the second harmonized solo.

Solo.2 (gtr1)
E-|-12-------------12-------------12------|-12--------------------------------|
B-|---15-14-12-------15-14-12-------15-14-|---15-14-12----12-14--12-14--12-14-|
G-|------------14-------------14----------|------------14---------------------|
D-|---------------------------------------|-----------------------------------|
A-|---------------------------------------|-----------------------------------|
E-|---------------------------------------|-----------------------------------|
                                                                               
Solo.2 (gtr2)                                                                               
E-|-------------------------------------|-------------------------------------|
B-|-14p12---------14p12---------14p12---|-14p12-------------------------------|
G-|------14p11---------14p11---------14-|------14p11----11-14--11-14--11-14---|
D-|-----------14------------14----------|-----------14------------------------|
A-|-------------------------------------|-------------------------------------|
E-|-------------------------------------|-------------------------------------|
                                                                               
                                                                               
This riff starts at the end of the second harmonized solo.  The first
acoustic riff (Riff.1) is played behind Riff.4.

Riff.4 (electric)
E-|------------------------------|--------------------------------------------|
B-|------------------------------|--------------------------------------------|
G-|--------9--9--9---------------|------9-9--9--7---7-7-7---------------------|
D-|------9-9--9--9-------9-9-----|-9h11-----11--7h9-----9--6-7----------------|
A-|-9h11-----11--9--9p11-----11--|--------------------------------------------|
E-|------------------------------|--------------------------------------------|

THIS IS ANOTHER VERSION:

RAMBLE ON Guitar Tab
--------------------
                                                                                    
Goat67


Standard Tuning

E|------000000000-|--0-0000000-00--|
B|------000000000-|--5-5555555-55--|
G|6-1313777777777-|46-77777776-606-| Play 12
D|7-1414777777777-|577-7777777-7-7-| times (ad lib)
A|7-1414777777970-|0-0-0-00--0-0-7-|
E|0-----000000000-|----------------|

E|----------------|----------------|----------------|----------------||
B|----0---00--0---|----0-----0-----|9-750----0------|---0------0-----||
G|13119-9---911---|----------------|------9----911--|----------------||
D|----------------|1211--119-------|----------------|121111119-------||
A|----------------|----------1211--|----------------|--------12111211||
E|----------------|--------------12|----------------|----------------||
 |                                    \3/                            ||
E|0-00000---2-22--|0-00--0---0--00-|0-----0---2--22-|00----0---0--00-||
B|0-00000---4-44--|5-55--0---0--00-|0-----0---4--44-|55----0---0--00-||
G|1-11112---4-44--|6-66--6---4--44-|1-----2---4--44-|66----6---4--44-||
D|2-22224---4-44--|7-77--7---2--22-|2-----4---4--44-|77----7---2--22-||
A|2-22224-------0-|0-00--7---2--22-|2-----4---------|00----7---2--22-||
E|0-00000-0-------|----0-0---0--00-|0-00000-0-------|--000-0---0--00-||


E|----------------|----------------|
B|9--97-----------|--------------8-|
G|9--97-9---------|79-----7--------|
D|9--97-9---------|57-775---5--7---|
A|7--77-7---------|----------------|
E|----------------|----------------|
 |                                 | Play 4 times
E|0000----XXXXXXXX|----------------|
B|0000----XXXXXXXX|----------------|
G|99997-9-XXXXXXXX|9--997-77--77-79|
D|99997-9-XXXXXXXX|7--775-55--55-57|
A|77777-7-XXXXXXXX|0--00---0---0---|
E|00000-0-XXXXXXXX|----------------|
  Ramble on.....


E|------000000000-|--0-0000000-00--|
B|------000000000-|--5-5555555-55--|
G|6-1313777777777-|46-77777776-606-|
D|7-1414777777777-|577-7777776-606-|
A|7-1414777777970-|0-0-7777776-606-|
E|0-----000000000-|----------------|

E|--0-0000000-00--|----------------|
B|--5-5555555-55--|---99-777710----|
G|6-677777776-606-|---99-77777-9999| Play 3 times
D|7-7-7777776-606-|---99-77777-7777| Then play this riff 4 times
A|0-0-7777776-606-|---77-77777-7777| with the next section
E|----------------|0---------------|


E|----------------|----------------|----------------|----------------|
B|3---------------|--323-323-323-5-|323-------------|3-323-323-323-5-|
G|4---------------|--424-424-424-6-|424-------------|4-424-424-424-6-|
D|----------------|----------------|----------------|----------------|
A|----------------|----------------|----------------|----------------|
E|----------------|----------------|----------------|----------------|

E|----------------|----------------|----------------|----------------|
B|323-------------|--323-323-323-5-|323-------------|----------------|
G|424-------------|--424-424-424-6-|424-------------|----------------|
D|----------------|----------------|----------------|----------------|
A|----------------|----------------|----------------|----------------|
E|----------------|----------------|----------------|----------------|


E|----------------|----------------|
B|9--97-----------|--------------8-|
G|9--97-9---------|79-----7--------|
D|9--97-9---------|57-775---5--7---|
A|7--77-7---------|----------------|
E|----------------|----------------|
 |                                 | Play 4 times
E|0000----XXXXXXXX|----------------|
B|0000----XXXXXXXX|----------------|
G|99997-9-XXXXXXXX|9--997-77--77-79|
D|99997-9-XXXXXXXX|7--775-55--55-57|
A|77777-7-XXXXXXXX|0--00---0---0---|
E|00000-0-XXXXXXXX|----------------|
  Ramble on.....

E|0-0-0-0-0-0-0-0-|0-000-----------|0-0-0-0-0-0-000-|0---0-----------|
B|5-5-5-5-5-5-5-5-|5-555-3-333-333-|5-5-5-5-5-5-555-|5---5-3---3-3-3-|
G|2-2-2-2-2-2-2-2-|2-222-2-222-222-|2-2-2-2-2-2-222-|2---2-2---2-2-2-| Play this riff and the next
D|2-2-2-2-2-2-2-2-|2-222-2-222-222-|2-2-2-2-2-2-222-|2---2-2---2-2-2-| together
A|0-0-0-0-0-0-0-0-|0-000-0-000-000-|0-0-0-0-0-0-000-|0---0-0---0-0-0-|
E|----------------|----------------|----------------|----------------|


E|12109-------12109-------12109---|12109---------------------------|
B|------1210--------1210----------|------1210--14----1214----1214--|
G|--------------------------------|--------------------------------|
D|--------------------------------|--------------------------------|
A|--------------------------------|--------------------------------|
E|--------------------------------|--------------------------------|
 |                                                                 | Play 2 times
E|9-7---------------------9-7-----|9-7-----------------------------|
B|----107-----9-7-------------10--|----107-----10----7-10----7-10--|
G|--------9-------107-------------|--------9-----------------------|
D|--------------------9-----------|--------------------------------|
A|--------------------------------|--------------------------------|
E|--------------------------------|--------------------------------|

E|----------------|----------------|
B|----------------|----------------|
G|---99-----9-----|---9----77------|
D|--9----------9--|----1179--9-6-7-|
A|911-119-9911--11|911-------------|
E|----------------|----------------|
 |                                 | Play 10 times
E|------000000000-|--0-00000000000-| (ad lib)
B|------000000000-|--5-55555555555-|
G|6-1313777777777-|46-777777766666-|
D|7-1414777777777-|577-77777777777-|
A|7-1414777777970-|0-0-00000000007-|
E|0-----000000000-|----------------|


E|----------------|----------------|
B|9--97-----------|--------------8-|
G|9--97-9---------|79-----7--------|
D|9--97-9---------|57-775---5--7---|
A|7--77-7---------|----------------|
E|----------------|----------------|
 |                                 | Play 8 times
E|0000----XXXXXXXX|----------------| (ad lib) then
B|0000----XXXXXXXX|----------------| repeat to fade
G|99997-9-XXXXXXXX|9--997-77--77-79|
D|99997-9-XXXXXXXX|7--775-55--55-57|
A|77777-7-XXXXXXXX|0--00---0---0---|
E|00000-0-XXXXXXXX|----------------|
  Ramble on.....
            

comments powered by Disqus
↑ Back to top | Led Zeppelin Tabs for Ramble On. Lyrics for acoustic guitar and electric guitar. Tablatures and chords are parodies/interpretations of the original songs. You may use it for private study, scholarship, research or language learning purposes only