» » »

Good Times Bad Times Bass tabs (ver.3)

Artists:  A B C D E F G H I J K L M N O P Q R S T U V W X Y Z # 

Good Times Bad Times Bass tabs (ver.3)

Led Zeppelin
Rating:
0/5 (0 votes)

Hard to play? Try these video lessons and learn fast.
                G:---------------------
D:---------------------
A:--------7-7----------   x5
E:---------------------


G:-----------------7-7-------------------
D:---------------7--7--7---4-7-----------
A:-7-7--------5----------5-----4---4-5-6-   x6
E:---------------------------------------


chorus
G:-----------------------------------4-4-----------244-----------
D:--------------------------------------012-2-22234--------------
A:-------4555-56-7-------4555-56-7-2----------------------022--2-
E:5-55-5-----------555-5-----------------------------------------

Bass solo 1
G:------2-3-2---------------
D:------------0-4-0-21------
A:-0-22----------------2-0--
E:--------------------------
 

2nd verse
G:----------------------------------------------------------------
D:----------012-42------------1-42------------1-42------------2-42
A:-----023-4-----------0-2-3-4---------0-2-3-4--------02-4-4-4----
E:2-2-2-----------2-2-2-----------2-2-2-----------2-22------------
 

G:-----------------------------------------------------------------
D:----4-32-------------43-2------------43-2------------43-2--------
A:---------04-2020---------04-202----------04-202----------24-20---
E:2-2--------------2--2------------2--2------------2-2-----------2-


2nd chorus
G:--------------------4-----------------------------------------------------------
D:--------22-22234-----2342-222224-----234-4-45566------3442----------------------
A:2-2-2-----------2-2-------------4-4-4-----------4-4-4-----4-42-------4------4---
E:------5--------------------------------------------------------4----------------


G:----9--9----7-----------9--9---7------------9--9----7------------9--9----7-------
D:---9--9--9---7--7-----9--9--9---7--7-------9--9--9---7--7-------9--9--9---7-7----
A:-7--------7---5---07---------7---5--0--07---------7---5---0--07---------7---5-0--  x2
E:---------------------------------------------------------------------------------


3rd chorus
G:--9-9----------------------------------------------------------------------
D:-9-9-9----------------------5567---99--------7-789-------------------------
A:7-----7-------------4-56-7-7----------6-78-9-------------------------------
E:--------55555-55-----------------7------------------7-777---777---7-7------
 
Bass solo 2

G:------7-----7-----7-----7-9--------
D:--7h9---7h9---7h9---7h9------------
A:-----------------------------------
E:-----------------------------------

Verse / Outro
G:----------------7--7---------------
D:---------------7--7--7---47--------
A:-7-7---------5---------5----4-45-6-
E:-----------------------------------   x9
            
Hard to play? Try these video lessons and learn fast. | Correct




comments powered by Disqus
↑ Back to top | Tablatures and chords are parodies/interpretations of the original songs. You may use it for private study, scholarship, research or language learning purposes only