» » »

Led Zeppelin, Good Times Bad Times Bass tabs (ver.1)

Artists:  A B C D E F G H I J K L M N O P Q R S T U V W X Y Z # 

Good Times Bad Times Bass tabs (ver.1)

Led Zeppelin Tabs
Rating:
0/5 (0 votes)
Good Times Bad Times lessons Tabs too difficult? Try these video lessons and learn fast
                Standard Tuning

G|----------------|----------------|----------------|----------------|----------------|
D|----------------|----------------|----------------|----------------|----------------|
A|7-7-------------|7-7-------------|7-7-------------|7-7-------------|7-7-------------|
E|----------------|----------------|----------------|----------------|----------------|

G|----------------|--7-7-----------|
D|----------------|-7-7-7-47-------|
A|7-7-------------|5-----5--4-45-6-|
E|----------------|----------------| Play 6 times

G|----------------|----------------|--4-4-----------|244-------------|---243-2--------|
D|----------------|----------------|-----012-2-22234|----------------|---------04021--|
A|------4555-56-7-|------4555-56-7-|2---------------|----2--02222202-|2-------------20|
E|555-5-----------|555-5-----------|----------------|----------------|----------------|
  Good times bad times....

G|----------------|----------------|----------------|----------------|
D|----------012-42|------------1-42|------------1-42|------------2-42|
A|-----023-4------|-----0-2-3-4----|-----0-2-3-4----|----02-4-4-4----|
E|2-2-2-----------|2-2-2-----------|2-2-2-----------|2-22------------|
  Sixteen I fell in love....

G|----------------|----------------|----------------|----------------|
D|----4-32--------|----43-2--------|----43-2--------|----43-2--------|
A|---------04-2020|---------04-202-|---------04-202-|---------24-20--|
E|2-22------------|2-22------------|2-22------------|2-22----------2-|

G|----------------|----4-----------|----------------|----------------|----------------|
D|--------22-22234|-----2342-222224|-----234-4-45566|------3442------|----------------|
A|2-2-2--0--------|2-2-------------|4-4-4-----------|4-4-4-----4-42--|4-----------4---|
E|----------------|----------------|----------------|--------------4-|----------------|
  Good times bad times....

G|--9-9---7-------|--9-9---7-------|--9-9---7-------|--9-9---7-------|
D|-9-9-9---7-7----|-9-9-9---7-7----|-9-9-9---7-7----|-9-9-9---7-7----|
A|7-----7---5-0--0|7-----7---5-0--0|7-----7---5-0--0|7-----7---5-0--0|
E|----------------|----------------|----------------|----------------|

G|--9-9---7-------|--9-9---7-------|--9-9---7-------|--9-9---7-------|
D|-9-9-9---7-7----|-9-9-9---7-7----|-9-9-9---7-7----|-9-9-9---7-7----|
A|7-----7---5-0--0|7-----7---5-0-2-|7-----7---5-0-2-|7-----7---5-0-2-|
E|----------------|----------------|----------------|----------------|

G|--9-9-----------|----------------|----------------|----------------|----7--7--7--7--|
D|-9-9-9----------|------------5567|--99-------7-789|----------------|--79-79-79-79-79|
A|7-----7---------|----4-56-7-7----|----6-78-9------|----------------|----------------|
E|--------55555555|5-55------------|7---------------|7-777-7-777-7-7-|7---------------|
  Good times bad times....

G|----------------|--7-7-----------|
D|----------------|-7-7-7-47-------|
A|7-7-------------|5-----5--4-45-6-|
E|----------------|----------------| Play 9 times then fade
            

comments powered by Disqus
↑ Back to top | Led Zeppelin Bass for Good Times Bad Times. Lyrics for acoustic guitar and electric guitar. Tablatures and chords are parodies/interpretations of the original songs. You may use it for private study, scholarship, research or language learning purposes only