» » »

Good Times Bad Times Bass tabs (ver.2)

Artists:  A B C D E F G H I J K L M N O P Q R S T U V W X Y Z # 

Good Times Bad Times Bass tabs (ver.2)

Led Zeppelin
Rating:
0/5 (0 votes)

Hard to play? Try these video lessons and learn fast.
                Here is the real version of Good Times  for you!
 
This is the Intro 
Will Some one rate my tab


G----------------------------------------------|
D----------------------------------------------|
A----7-7--7-7--7-7--7-7--7-7-------------------|
E----0-0--0-0--0-0--0-0--0-0-------------------|

If you want you can throw in some little riffs in between.
That is what I do but I wont transcribe them. You can make
Up your own!

This is the chorus. Played 6 times

G------------7--7-----------2------------------|
D--------0--7--7--7---0--4---------------------|
A----7-7-------------------------4-5-6-7-7-----|
E----0-0------------------------------0-0------|

G----------------------------------------------|
D----------------------------------------------|
A------5-5-----5-5-----7-7---------------------|
E--5-5-----5-5-----7-7-----7-7-7-7-7-----------|

First Solo

G-----4--3--2----------------------------------|
D----4--------0-4-0-2-0------------------------|
A---2-----------------2--0---------------------|
E----------------------------------------------|

This is the chorus except a whole step higher


G----------------------------------------------|
D------2-2-----2-2-----4-4---------------------|
A--2-2-----2-2-----4-4-----4-4-4-4-4-----------|
E----------------------------------------------|

This is played during the guitar solo

G----9-9----7----------------------------------|
D---9-9-9--7-7---------------------------------|
A--7------5---5-0------------------------------|
E----------------------------------------------|

This part is the Second Solo

G-------7-----7-----7-----7-----7h9------------|
D---7h9---7h9---7h9---7h9---7h9----------------|
A----------------------------------------------|
E-----------------------------------0-0--------|


If you put these parts in order you’ll be able to figure it out!
            
Hard to play? Try these video lessons and learn fast. | Correct




comments powered by Disqus
↑ Back to top | Tablatures and chords are parodies/interpretations of the original songs. You may use it for private study, scholarship, research or language learning purposes only