» » »

Laura Marling, Ghosts Tabs (ver.3)

Artists:  A B C D E F G H I J K L M N O P Q R S T U V W X Y Z # 

Ghosts Tabs (ver.3)

Laura Marling Tabs
Rating:
0/5 (0 votes)
Ghosts lessons Tabs too difficult? Try these video lessons and learn fast
                previous tabs have been good but thought I'd make it clearer and tell you hand positions :)

Tuning: Capo Second fret Standard tuning
(Notes relative to capo)

Intro
Hand position open C with your third finger

e|---------------------|
B|--------1/3----------|
G|---------------------|
D|--------2/4----------|
A|---0~----------------|
E|---------------------|

Small fill second time round in intro (for hand position see below)
e|--------------------------------------------------|
B|-------3----3h5---3-----3-----3-----3-----3-----3-|
G|-------0----0-----0-----0-----4-----4-----4-----4-|
D|-------4----4-----4-----4-----5-----5-----5-----5-|
A|-----0-----0-----0-----0--------------------------|
E|-----------------------------3-----3-----3-----3--|


Verse Riff Hand position changes from the open C chord shape (minus the third finger) 
but moved up two frets then change to a G barre chord then back continuously for the verse

e|--------------------------------------------------|
B|-------3----3-----3-----3-----3-----3-----3-----3-|
G|-------0----0-----0-----0-----4-----4-----4-----4-|
D|-------4----4-----4-----4-----5-----5-----5-----5-|
A|-----0-----0-----0-----0--------------------------|
E|-----------------------------3-----3-----3-----3--|

For the chorus play open Em then G putting more emphasis on the bass notes

Em         G
Lover, please do not
Em               G
Fall to your knees
Em
Its not
G
Like I believe in
Em               G
Everlasting love

Return to verse riff, then repeat chorous

Bridge
Am7         Bm7
He says ‘I’m so lost,
Am7        Am7
Not at all well’

CEFC   play C chord open but add 3rd fret on E string


Oooh
Oooh
Do as though there is nothing left to be
Turned out I’d been following him and he’d been following me
Do as though after it was over
We were just two lovers crying on each others shoulders
And i said

Repeat chorus till end :) x
            

comments powered by Disqus
↑ Back to top | Laura Marling Tabs for Ghosts. Lyrics for acoustic guitar and electric guitar. Tablatures and chords are parodies/interpretations of the original songs. You may use it for private study, scholarship, research or language learning purposes only