» » »

Laura Marling, Shine Tabs (ver.1)

Artists:  A B C D E F G H I J K L M N O P Q R S T U V W X Y Z # 

Shine Tabs (ver.1)

Laura Marling Tabs
 Rating:
4/5 (4 votes)
Shine lessons Tabs too difficult? Try these video lessons and learn fast
                Laura Marling - Shine

I noticed no one had tabbed this song so I thought I'd try. This isn't 100%
correct. There are a lot of quiet notes that I couldn't place; this is the 
closest I could get. The whole song, incidentally, is fingered really 
quietly, rather than strummed (which you will obviously know if you've 
listened to the song and are here) - the chords are there to tell you the 
fingering. You should be able to adlib it from listening to the song, 
basically; I've tabbed some of the parts I could work out - somewhat - 
however. Do be gentle.

Chords:

Asus2 - x022xx
Fsus2 - 1330xx
G5 - 35xxxx
F5 - 13xxxx
Cmaj - x3201x
Gmaj - 3200xx

Intro 

e|--3p1--0----------------------------------------|
B|----------0--(1)-(3)-(1)-----------1--3--0h1----|
G|-------------------------(2)--2h4---------------|
D|------------------------------------------------|
A|------------------------------------------------|
E|------------------------------------------------|


Verse
    Asus2                            Fsus2
e|------------------------------------------------------------------|
B|------------------------------------------------------------------|
G|----------------------------------------------------0-------------|
D|----2---2---2---2---2---2---2---2---------3------3-----3----------|
A|--0---0---0---0---0---0---0---0------3-------3------------3-------|
E|-----------------------------------1---1-------1------------------|

Asus2                                 Fsus2
I have travelled past your window many times
Asus2                        Fsus2
I find your face too hard to define
Asus2                       Fsus2
I can't touch you, hollow thing
    Asus2  G5 F5
You plague my mind
Asus2       G5    F5
I can never go outside
Asus2    G5    F5        Asus2 G5      F5
I will never go back to  being   blind

Intro

       Asus2                               Fsus2
I have wondered what you're doing every day since last I asked
Asus2                                Fsus2
  Are your cheeks hollow? I don't like your eyes dark


Chorus (repeat throughout)
    Cmaj            Gmaj            
e|--------------------------------------|
B|----1-------1-------------------------|
G|--------0-------0---0-------0---------|
D|------2-------2---------0-------0-----|
A|--3-------3-----------2-------2-------|
E|------------------3-------3-----------|

       Cmaj          Gmaj          Cmaj     Gmaj
I need shine, I need shine, I need shine
      Cmaj        Gmaj    Cmaj  
Step away from my light I need shine



Asus2                  Fsus2
  I am honest, no, not a shouter
Asus2              Fsus2
  I am reformed, reborn and forgiven
Asus2                           Fsus2 
And you've been busy but you've missed me
         Asus2   G5   F5
And I've plagued your mind
Asus2          G5    F5
You will never go outside
Asus2    G5     F5        Asus2 G5     F5
You will never go back to being   blind


       Cmaj          Gmaj          Cmaj     Gmaj
I need shine, I need shine, I need shine
      Cmaj        Gmaj    Cmaj  
Step away from my light I need shine
       Cmaj          Gmaj          Cmaj     Gmaj
I need shine, I need shine, I need shine
      Cmaj        Gmaj    Cmaj  
Step away from my light I need shine       

       Cmaj          Gmaj          Cmaj     Gmaj
I need shine, I need shine, I need shine
      Cmaj        Gmaj    Cmaj  
Step away from my light I need shine
       Cmaj          Gmaj          Cmaj     Gmaj
I need shine, I need shine, I need shine
      Cmaj        Gmaj    Cmaj  
Step away from my light I need shine

Outro
    Cmaj            Gmaj            Cmaj
e|-------------------------------------------------------|
B|----1-------1-----------------------1-------1----------|
G|--------0-------0---0-------0-----------0--------------|
D|------2-------2---------0-------0-----2---------0------|
A|--3-------3-----------2-------2---3-------3-------3----|
E|------------------3-------3-------------------3--------|
            
Submit corrections

comments powered by Disqus
↑ Back to top | Laura Marling Tabs for Shine. Lyrics for acoustic guitar and electric guitar. Tablatures and chords are parodies/interpretations of the original songs. You may use it for private study, scholarship, research or language learning purposes only