» » »

Ghosts Bass tabs (ver.1)

Artists:  A B C D E F G H I J K L M N O P Q R S T U V W X Y Z # 

Ghosts Bass tabs (ver.1)

Laura Marling
Rating:
0/5 (0 votes)

Hard to play? Try these video lessons and learn fast.
                
I'm 99% sure this is right, bass doesn't come in untill the so you will have to wait for 
a bit, good song though.

Tuning:EADG


G|----------------------------------|
D|----------------------------------|
A|--5-5-5-5-----------------5-5-5-5-|
E|----------2-2-2-2-3-3-3-3---------|

final chorus

G|---------------------------|
D|---------------------------|
A|----------4-4-4-4----------|
E|--5-5-5-5------------------|
            
Hard to play? Try these video lessons and learn fast. | Correct




comments powered by Disqus
↑ Back to top | Tablatures and chords are parodies/interpretations of the original songs. You may use it for private study, scholarship, research or language learning purposes only