» » »

Ghosts Tabs (ver.1)

Artists:  A B C D E F G H I J K L M N O P Q R S T U V W X Y Z # 

Ghosts Tabs (ver.1)

Laura Marling
Rating:
5/5 (15 votes)

Hard to play? Try these video lessons and learn fast.
                			     SONG NAME - Band Name
Couldn’t find this anywhere so thought I’d have a shot, first time I’ve tabbed a
song so apologies for any Tab Faux pas!! Enjoy…it’s a beautiful song!

Tuning: Capo Second fret Standard tuning 

verse:		 		
                                      Repeat     Fill for 1st bar
e||------------------|----------------------||-------------------------|
B||---3---3---3---3--|---0----0----0----0---||----3----3h5----3----0---|
G||.--0---0---0---0--|---4----4----4----4--.||----0----0------0----0---|
D||.--4---4---4---4--|---5----5----5----5--.||----4----4------4----4---|    
A||------------------|--(5)—-(5)—-(5)—-(5)--||-------------------------|
E||-5---5---5---5----|-3----3----3----3-----||--5----5------5----5-----|

Chorus:

e|------|--------|--------|--------|--------|--------|-------|--------|
B|--0---|----0---|----0---|----0---|----0---|----0---|---0---|----0---|
G|--0---|----0---|----0---|----0---|----0---|----0---|---0---|----0---|
D|--2---|----0---|----2---|----0---|----2---|----0---|---2---|----0---|
A|--2---|----2---|----2---|----2---|----2---|----2---|---2---|----2---|
E|--0---|----3---|----0---|----3---|----0---|----3---|---0---|----3---|

verse:				
                                      Repeat.     Fill for 1st bar
e||------------------|----------------------||-------------------------|
B||---3---3---3---3--|---0----0----0----0---||----3----3h5----3----0---|
G||.--0---0---0---0--|---4----4----4----4--.||----0----0------0----0---|
D||.--4---4---4---4--|---5----5----5----5--.||----4----4------4----4---|    
A||------------------|--(5)—-(5)—-(5)—-(5)--||-------------------------|
E||-5---5---5---5----|-3----3----3----3-----||--5----5------5----5-----|

Chorus:

e|------|--------|--------|--------|--------|--------|-------|--------|
B|--0---|----0---|----0---|----0---|----0---|----0---|---0---|----0---|
G|--0---|----0---|----0---|----0---|----0---|----0---|---0---|----0---|
D|--2---|----0---|----2---|----0---|----2---|----0---|---2---|----0---|
A|--2---|----2---|----2---|----2---|----2---|----2---|---2---|----2---|
E|--0---|----3---|----0---|----3---|----0---|----3---|---0---|----3---|


Bridge:

e|-----------------|-----------------|-----------------|-----------------|
B|---1---1---3---3-|---1---1---1---1-|---1---1---3---3-|---1---1---1---1-|
G|---0---0---0---0-|---0---0---0---0-|---0---0---0---0-|---0---0---0---0-|
D|---2---2---4---4-|---2---2---2---2-|---2---2---4---4-|---2---2---2---2-|
A|-0---0---2---2---|-0---0---0---0---|-0---0---2---2---|-0---0---0---0---|
E|-----------------|-----------------|-----------------|-----------------|

e|-----------------||-----------------|-----------------|-----------------|
B|---1---1---1---1-||---1---1---1---1-|---0---0---0---0-|---1---1---1---1-|
G|---0---0---0---0-||.--0---0---0---0-|---0---0---0---0-|---2---2---2---2-|
D|---2---2---2---2-||.--2---2---2---2-|---2---2---2---2-|---3---3---3---3-|
A|-0---0---0---0---||-3---3---3---3---|-2---2---2---2---|--(3)-(3)-(3)-(3)|
E|-----------------||-----------------|-----------------|-1---1---1---1---|
  
                      X4
e|--------------------||
B|----1---1---1---1---||
G|----0---0---0---0--.||
D|----2---2---2---2--.||
A|--3---3---3---3-----||
E|--------------------||

Chorus:

e|------|--------|--------|--------|--------|--------|-------|--------|
B|--0---|----0---|----0---|----0---|----0---|----0---|---0---|----0---|
G|--0---|----0---|----0---|----0---|----0---|----0---|---0---|----0---|
D|--2---|----0---|----2---|----0---|----2---|----0---|---2---|----0---|
A|-(2)--|----2---|---(2)--|---_2---|---(2)--|----2---|--(2)--|----2---|
E|--0---|----3---|----0---|----3---|----0---|----3---|---0---|----3---|

END

||		 ||
||		 ||
||.  Repeat    	.||
||.		.||
||		 ||
||		 ||

| /  slide up
| \  slide down
| h  hammer-on
| p  pull-off
| ~  vibrato
| +  harmonic
| x  Mute note


He walked down a busy street
Staring solely at his feet
Clutching pictures of past lovers at his side
Stood at the table where she sat
And removed his hat
In respect of her presence
Presents her with the pictures and says
These are just ghosts that broke my heart before I met you.
These are just ghosts that broke my heart before I met you

He opened up his little heart
Unlocked the lock that kept it dark
And read a written warning
Saying Im still mourning
Over ghosts
Over ghosts
Over ghosts
Over ghosts that broke my heart before I met you

Lover, please do not
Fall to your knees
Its not
Like I believe in
Everlasting love

so he went crazy at nineteen
Said hed lost all his self esteem
And couldnt understand why he was crying...

He would stare at empty chairs
Think of the ghosts who once sat there
The ghosts that broke his heart.
oh the ghosts that broke my heart
The ghosts that broke his heart
oh the ghosts that broke my heart
the ghosts the ghosts the ghosts the ghosts the ghosts the ghosts
The ghosts that broke my heart before I met you

Lover, please do not
Fall to your knees
Its not
Like I believe in
Everlasting love

He says Im so lost,
Not at all well

ooooooooooohhh x2

Do as done there is nothing left to be
Turned out Id been following him and he�d been following me
Do as done after it was over
We were just two lovers crying on each others shoulders

Lover, please do not
Fall to your knees
Its not
Like I believe in
Everlasting love

Lover, please do not
Fall to your knees
Its not
Like I ever believed in
Everlasting love
===============================================================================
            
Hard to play? Try these video lessons and learn fast. | Correct




comments powered by Disqus
↑ Back to top | Tablatures and chords are parodies/interpretations of the original songs. You may use it for private study, scholarship, research or language learning purposes only