» » »

Laura Marling, Ghosts Tabs (ver.2)

Artists:  A B C D E F G H I J K L M N O P Q R S T U V W X Y Z # 

Ghosts Tabs (ver.2)

Laura Marling Tabs
 Rating:
4/5 (4 votes)
Ghosts lessons Tabs too difficult? Try these video lessons and learn fast
                GHOSTS - Laura Marling

Tuning: Standard
Capo: Second Fret

I learnt the other versions on here of this song, but I wanted to add little bits in and 
make it more accurate. This is the first song I've ever tabbed ever, and I hope I've 
done a good job. So yeah here you go :-)

Intro: Am7, C
e|---------------------|
B|----1--1/3~----------|
G|---------------------|
D|----2--2/4~----------|
A|--0------------------|
E|---------------------|


Verse: C, G
e|------------------|----------------------|-------------------------|----------------------|
B|---3---3---3---3--|---0----0----0----0---|----3----3h5----3----0---|---0----0----0----0---|
G|---0---0---0---0--|---0----0----0----0---|----0----0------0----0---|---0----0----0----0---|
D|---4---4---4---4--|---0----0----0----0---|----4----4------4----0---|---0----0----0----0---|
A|-0---0---0---0----|----------------------|--0----0------0----0-----|----------------------|

E|------------------|-3----3----3----3-----|-------------------------|-3----3----3----3-----| x6


Chorus: Em, G
e|-------|-------|-------|-------|-------|-------|-------|-------|
B|---0---|---0---|---0---|---0---|---0---|---0---|---0---|---0---|
G|---0---|---0---|---0---|---0---|---0---|---0---|---0---|---0---|
D|---2---|---0---|---2---|---0---|---2---|---0---|---2---|---0---|
A|---2---|---2---|---2---|---2---|---2---|---2---|---2---|---2---|
E|---0---|---3---|---0---|---3---|---0---|---3---|---0---|---3---|


Verse x4


Chorus


"He says I'm so lost": Am7, Bm, Am7, Am7
e|----0----|----2----|----0----|----0----|
B|----1----|----0----|----1----|----1----|
G|----0----|----4----|----0----|----0----|
D|----2----|----0----|----2----|----2----|
A|----0----|----2----|----0----|----0----|
E|---------|---------|---------|---------|


"Do as though there is nothing left to be" (bridge): C, Em, F, C
e|----0----|----0----|----1----|----0----|
B|----1----|----0----|----1----|----1----|
G|----0----|----0----|----2----|----0----|
D|----2----|----2----|----3----|----2----|
A|----3----|----2----|----3----|----3----|
E|---------|----0----|----1----|---------| x4


Chorus x2 (strumming)


end on: G
e|----3----|
B|----3----|
G|----0----|
D|----0----|
A|----2----|
E|----3----|
            
Submit corrections

comments powered by Disqus
↑ Back to top | Laura Marling Tabs for Ghosts. Lyrics for acoustic guitar and electric guitar. Tablatures and chords are parodies/interpretations of the original songs. You may use it for private study, scholarship, research or language learning purposes only