» » »

Las, There She Goes Tabs (ver.5)

Artists:  A B C D E F G H I J K L M N O P Q R S T U V W X Y Z # 

There She Goes Tabs (ver.5)

Las Tabs
Rating:
4/5 (5 votes)
There She Goes lessons Tabs too difficult? Try these video lessons and learn fast
                (Intro)
Intro:
           2 Bar Count In:					<--Acc.Gtr. Cue-->

									    D

      [-----------------||--3---5---2---3---|-0---0---0--------||-0---0---0-------]
      [-----------------||•---3---3---3---3-|---3---3---3---3-•||---3---3---3---3-]
      [---------------3-||------------------|-------------0----||-------------0---]
      [-----------------||------------------|------------------||-----------------]
      [-----------------||•-----------------|-----------------•||-----------------]
      [-----------------||------------------|------------------||-----------------]


        G           D            Cadd9          D           Cadd9        G6/B

     [--3-----5-----2-----3----|-0-----0-----0-----------||-0-----0-----0----------]
     [•----3-----3-----3-----3-|----3-----3-----3-----3-•||----3-----3-----3-----3-]
     [-------------------------|-------------------0-----||-------------------0----]
     [-------------------------|-------------------------||------------------------]
     [•------------------------|------------------------•||------------------------]
     [-------------------------|-------------------------||------------------------]


  Am          G/B             Cadd9                         D

[-----3-----5-----3--------|-----3--------3-----3--3--|-----5---5---5---5---5---3-------]
[--5-----5-----------5--3--|--5-----5--3-----5--------|-----7---7---7---7---7---5---3---]
[--------------------------|--------------------------|---------------------------------]
[--------------------------|--------------------------|---------------------------------]
[--------------------------|--------------------------|---------------------------------]
[--------------------------|--------------------------|---------------------------------]
            

comments powered by Disqus
↑ Back to top | Las Tabs for There She Goes. Lyrics for acoustic guitar and electric guitar. Tablatures and chords are parodies/interpretations of the original songs. You may use it for private study, scholarship, research or language learning purposes only