» » »

Lookin' Glass Tabs (ver.1)

Artists:  A B C D E F G H I J K L M N O P Q R S T U V W X Y Z # 

Lookin' Glass Tabs (ver.1)

Las
Rating:
0/5 (0 votes)

Hard to play? Try these video lessons and learn fast.
                
Note: Capo on 1st fret. I've tried to show the verse chord progression to
help anybody transposing.

G1: Guitar 1 (Lee Mavers)

G1 Intro:
-|------------------------------------------------------------------------|
-|--------------------------2----------------------------2----------------|
-|----------0---------------2----------0-----------------2----------------|
-|----0-2-3---3-2-0---------2----0-2-3---3-2-0-----------2----------------|
-|--3---------------2h3p2p0-0--3-----------------2h3p2p0-0----------------|
-|------------------------------------------------------------------------|

--------------------------------2-2-----2-2------2-2-----0---------0-----|
---------------------------2----3-3--2--3-3---2--3-3-2---3--------2------|
-----------0---------------2----2-2--2--2-2---2--2-2-2---2-------2-------|
-----0-2-3---3-2-0---------2----0-0--2--0-0---2--0-0-2---0------0--------|
---3---------------2h3p2p0-0---------0--------0------0---------0---------|
-------------------------------------------------------------------------|

G1 Verse: (Play 3 times)
-|--------------------------------------------------------------|---------|
-|------2---2---2---3-3-------------------------2---2---2---2h3-|---------|
-|------2---2---2---2-2------2------------------2---2---2---2---|---------|
-|----2--------------------2------------------------------------|---------|
-|--0-----0---0---0------0------0--2--4------4------------------|---------|
-|---------------------------------------2--------2---2---2-----|---------|
    A                                     F#m
-------------------------------------0--0---------------------------------|
--------------------2---3-------2-3-------------------------3---3---------|
--------------------2---2-------2-2-----------------------2-2---2---------|
------------------2----------2----------------2---------0-----0---0-------|
----------------0-----0----0----------------0---0--2--4-------------4--2--|
--2-2-2-2-2-2-0-----------------------------------------------------------|
                           A                            Dsus2
--------2--2----------|---------------------------------------------------|
--------2--2h3--------|---------------------------------------------------|
-----2--2--2----------|---------------------------------------------------|
-----4--4--4----------|---------------------------------------------------|
-----4----------------|---------------------------------------------------|
---2------------2--0--|---------------------------------------------------|
   F#m

G1 Pre-Chorus:
-|-------------------------------------------------------------2--2-------|
-|------2---2---2---3-3----------------------3---3-------------2--2h3-----|
-|------2---2---2---2-2------2------------2--2---2-----------2-2--2-------|
-|----2--------------------2------------0------0---0---------4-4--4-------|
-|--0-----0---0---0------0------0--2--4---------------4--2---4------------|
-|---------------------------------------------------------2---------2--0-|
Oh tell me where I'm goin'             Tell me why I'm bound
    A                                   Dsus2            F#m

-----------------------0--0-----------0--0--0--0--0--0--0--0--0-|----------|
------2---3-------2-3-----------------3--3--3--3--3--2--2--2--2-|----------|
------2---2-------2-2-----------------2--2--2--2--2--2--2--2--2-|----------|
----2----------2--------------2---2---0--0--0--0--0--0--0--0--0-|----------|
--0-----0----0--------------0---0---0---------------------------|----------|
----------------------------------------------------------------|----------|
 To tear the pages open           Turn the world around..
  A                                   Dsus2

G1 Chorus: (Play 4 times)
-|------------------------------------------------0-----------------------|
-|-----2--0--2--3--2-----3--2--3--2--3-------2--3---3--2--3--0------------|
-|-----2--2--2--2--2-----2--2--2--2--2-------2--2---2--2--2--0---------0--|
-|---------------------0----------------0----------------------------0----|
-|--0--------------------------------------------------------------0------|
-|---------------------------------------------------------------3--------|
    A                  Dsus2                                 G

G1 Post-Chorus:
-|--------------------------0----------------0-------0-0-0-0-0-0----------|
-|----3--2--3--2--3----2--3---3--2------2--3---3--2--3-3-3-3-2-2----------|
-|----2--2--2--2--2----2--2---2--2------2--2---2--2--2-2-2-2-2-2-------0--|
-|--0------------------------------------------------0-0-0-0-0-0-----0----|
-|-------------------0---------------0-----------------------------0------|
-|---------------------------------------------------------------3--------|
    Dsus2            A                               Dsus2       G

-|------------------------------------------------------------------------|
-|------------------------------------------------------------------------|
-|--------------------------------0----------------------------------0----|
-|--2-2-2-2-2-2-2-2-2-2-2-2-----0----2-2-2-2-2-2-2-2-2-2-2-2-2-----0------|
-|--0-0-0-0-0-0-0-0-0-0-0-0---0------0-0-0-0-0-0-0-0-0-0-0-0-0---0--------|
-|--------------------------3----------------------------------3----------|
    A                       G        A                         G

The rest of the song is pretty much repetion with the
obvious speeding rhythm of the chorus section towards the end.
            
Hard to play? Try these video lessons and learn fast. | Correct




comments powered by Disqus
↑ Back to top | Tablatures and chords are parodies/interpretations of the original songs. You may use it for private study, scholarship, research or language learning purposes only