» » »

There She Goes Tabs (ver.1)

Artists:  A B C D E F G H I J K L M N O P Q R S T U V W X Y Z # 

There She Goes Tabs (ver.1)

Las
Rating:
4/5 (15 votes)

Hard to play? Try these video lessons and learn fast.
                Hey, this is my first tab :)
Hope you guys like it :)
I missed alot out, because its repetitive
Listen to the song to find out the order
You can replace the X's with no notes

Thanks, Caz

Intro

e|-----3---5---2---3---0---0---0---|
B|-3-3---3---3---3---3---3---3---3-|
G|---------------------------------|
D|---------------------------------|
A|---------------------------------|
E|---------------------------------|

e|-----3---5---2---3---0---0-  e|-2-2-2-2-|
B|-3-3---3---3---3---3---3---  B|-3-3-3---|
G|---------------------------  G|-2-2-2---|
D|---------------------------  D|---------|
A|---------------------------  A|---------|
E|---------------------------  E|---------|

Chorus

   G       D         C                D

e|-3--3-x 5-5   3--3-3-3-3-3-3-3-3- 3-3-3----|
B|-3--3-x 7-7   5--5-5-5-5-5-5-5-5- 2-2-2----|
G|-4--4-x 7-7   5--5-5-5-5-5-5-5-5- 3-3-3----|
D|-5--5-x 7-7   5--5-5-5-5-5-5-5-5- ---------|
A|-5--5-x 5-5   3--3-3-3-3-3-3-3-3- ---------|
E|-3--3-x ---   ------------------- ---------|   X8

   Am      G

e|-5--5-x 3-3-x 1--1-1-1-1-1-1-1-1-|
B|-5--5-x 3-3-x 1--1-1-1-1-1-1-1-1-|
G|-5--5-x 4-4-x 2--2-2-2-2-2-2-2-2-|
D|-7--5-x 5-5-x 3--3-3-3-3-3-3-3-3-|
A|-7--5-x 5-5-x 0--0-0-0-0-0-0-0-0-|
E|-5--5-x 3-3-x -------------------|

    Am      G

e|-5--5-x 3-3-x 1--1-1-1-1-1-1-1-1   e|-2-2-2-2-2-2-2-|
B|-5--5-x 3-3-x 1--1-1-1-1-1-1-1-1   B|-3-3-3-3-3-3-3-|
G|-5--5-x 4-4-x 2--2-2-2-2-2-2-2-2   G|-2-2-2-2-2-2-2-|
D|-7--5-x 5-5-x 3--3-3-3-3-3-3-3-3   D|---------------|
A|-7--5-x 5-5-x 0--0-0-0-0-0-0-0-0   A|---------------|
E|-5--5-x 3-3-x ------------------   E|---------------|

Chorus

   G       D         C                D

e|-3--3-x 5-5   3--3-3-3-3-3-3-3-3- 3-3-3----|
B|-3--3-x 7-7   5--5-5-5-5-5-5-5-5- 2-2-2----|
G|-4--4-x 7-7   5--5-5-5-5-5-5-5-5- 3-3-3----|
D|-5--5-x 7-7   5--5-5-5-5-5-5-5-5- ---------|
A|-5--5-x 5-5   3--3-3-3-3-3-3-3-3- ---------|
E|-3--3-x ---   ------------------- ---------|   X8
            
Hard to play? Try these video lessons and learn fast. | Correct




comments powered by Disqus
↑ Back to top | Tablatures and chords are parodies/interpretations of the original songs. You may use it for private study, scholarship, research or language learning purposes only