>
 >
 >
There She Goes 1

There She Goes 1 Guitar Tabs

Las - There She Goes 1 chords, tabs, tablatures, lyrics

Guitar lessons | Add/correct | Request | Top 50 tabs Artists:  A B C D E F G H I J K L M N O P Q R S T U V W X Y Z 0-9

There She Goes 1 Guitar Tabs – Las

CD, Sheet music, Poster

Do you like There She Goes 1? Share with your friends now
Bass TabsChordsChords v2Chords v3TabsTabs v2Tabs v3Tabs v4Ukulele
-------------------------------------------------------------------------------
There She Goes - The Las
-------------------------------------------------------------------------------


Tuning: eBGDAE

Note: The chords are roughly placed above the Endings for a possible second 
guitar.  Listen for exact placement.

Intro:

e|-----3-----5-----2-----3-----0-----0-----0---------|
B|--3-----3-----3-----3-----3-----3-----3-----3------|
G|-----------------------------------------------0---| 
D|---------------------------------------------------|
A|---------------------------------------------------|
E|---------------------------------------------------|

Chorus:
   
   (G)            (D)         (Cadd9)
e|-----3-----5-----2-----3-----0-----0-----0---------|
B|--3-----3-----3-----3-----3-----3-----3-----3------|
G|-----------------------------------------------0---| 
D|---------------------------------------------------|
A|---------------------------------------------------|
E|---------------------------------------------------|

Ending 1:
   
   (Am)            (C)      (G)
e|-------3---5---3-----------------3--------3--------3---|
B|--3/5--------------5---3----4/5------4/5------4/5------|
G|-------------------------------------------------------|
D|-------------------------------------------------------|
A|-------------------------------------------------------|
E|-------------------------------------------------------|

Chords:

e|---5-----5-----5-----5-----3---|
B|---7-----7-----7-----7-----5---|
G|---7-----7-----7-----7-----5---|
D|---0-----0-----0-----0-----0---|
A|---x-----x-----x-----x-----x---|
E|---x-----x-----x-----x-----x---|

Ending 2:
    
   (Am)     (C)     (G)          (Am)     (C)     (G)  
e|------3--5----------3--5----------3--5--3-------------3------3------3---|
B|--3/5-------3---4/5-------3---4/5----------5---3---4/5----4/5----4/5----|
G|------------------------------------------------------------------------|
D|------------------------------------------------------------------------|
A|------------------------------------------------------------------------|
E|------------------------------------------------------------------------|

Chords 2:

(Em)    (C)    (Em)    (C)    (D)    (C)    (G)    (D)    (C)    (G)



Ending 3:
   
    (Am)      (C)       (G)          (Am)     (C)       (G) 
e|------5-5-5-5--3-------------5-5-5-5--3-------------5-5-5-5--3-------|
B|--3/5-------------5--3---4/5-------------5--3---4/5------------5--3--|
G|---------------------------------------------------------------------|
D|---------------------------------------------------------------------|
A|---------------------------------------------------------------------|
E|---------------------------------------------------------------------|


************************************

Order:

Intro;     x4
Chorus;    x3
Ending 1;  x1
Chords;    x1
Chorus;    x3
Ending 2;  x1
Chords;    x1
Chorus;    x3
Ending 2;  x1
Chords;    x1
Chorus;    x3
Solo (Ending 2);x1
Chords:    x1
Chords 2;  x1
Ending 3;  x1
Chorus;    x3
Ending 2;  x1
Chorus;    x3

************************************

| /   slide up
| \   slide down
| h   hammer-on
| p   pull-off
| ~   vibrato
| +   harmonic
| x   Mute note
| b   Bend
| pb  Pre-bend
| br  Bend release
| pbr Pre-bend release
| brb Bend release bend

************************************





Comments


Popular Las tabs & chords
Doledrum Chords
There She Goes Chords
There She Goes 2 Chords
Way Out Chords
Who Knows Chords
There She Goes Tabs
There She Goes 3 Tabs
Timeless Melody Tabs
Callin All Ukulele
I Cant Sleep Ukulele


Song lyrics



↑ Back to top | Tablatures and chords are parodies/interpretations of the original songs. You may use it for private study, scholarship, research or language learning purposes only
© 2014 AZChords.com Contact us | Privacy policy | DMCA | Add/correct tabs | Request tabs | Top 50 tabs