>
 >
 >
Feelin'

Feelin' Guitar Tabs

Las - Feelin' chords, tabs, tablatures, lyrics

Guitar lessons | Add/correct | Request | Top 50 tabs Artists:  A B C D E F G H I J K L M N O P Q R S T U V W X Y Z 0-9

Feelin' Guitar Tabs – Las

CD, Sheet music, Poster

Do you like Feelin'? Share with your friends now
ChordsChords v2TabsTabs v2
The La's


G1: Guitar 1 (Lee Mavers)
G2: Guitar 2 (Peter Camell)

G1 Intro: (strum these notes with a rockabilly rhythm rather than pick them)
-|----x-----------------|---------------|---------------|----------------------|
-|--x-x-x---------------|---------------|---------------|----------------------|
-|--x-x-x---------------|---------------|---------------|----------------------|
-|--x-x-x---------------|---------------|---------------|----------------------|
-|--x---x---1-----------|---1-----------|---1-----------|----------------------|
-|--------3---3-3-1b1.5-|-3---3-3-1b1.5-|-3---3-3-1b1.5-|----------------------|

G2:
-|----------------------|---------------|---------------|----------------------|
-|--------0-------1-----|-0-------1-----|-0-------0-----|----------------------|
-|--------0-------0-----|-0-------0-----|-0-------0-----|----------------------|
-|----------------------|---------------|---------------|----------------------|
-|----------------------|---------------|---------------|----------------------|
-|----------------------|---------------|---------------|----------------------|

G1:
-|---------------|---------------|---------------|--------------------|--------|
-|---------------|---------------|---------------|----x---x---x---x---|--------|
-|---------------|---------------|---------------|--x-x-x-x-x-x-x-x-x-|--------|
-|---------------|---------------|---------------|--x-x-x-x-x-x-x-x-x-|--------|
-|---1-----------|---1-----------|---1-----------|--x---x---x---x---x-|--------|
-|-3---3-3-1b1.5-|-3---3-3-1b1.5-|-3---3-3-1b1.5-|--------------------|--------|

G2:
-|---------------|---------------|---------------|--------------------|--------|
-|-0-------1-----|-0-------0-----|-0-------1-----|--------------------|--------|
-|-0-------0-----|-0-------0-----|-0-------0-----|--------------5--4--|--------|
-|---------------|---------------|---------------|-----5--3--0--------|--------|
-|---------------|---------------|---------------|--------------------|--------|
-|---------------|---------------|---------------|--3-----------------|--------|


G1 Verse:
-|----------|----------|----------|----------|---------------------------------|
-|----x---x-|----x---x-|----x---x-|----x---x-|---------------------------------|
-|--x-x-x-x-|--x-x-x-x-|--x-x-x-x-|--x-x-x-x-|---------------------------------|
-|--x-x-x-x-|--x-x-x-x-|--x-x-x-x-|--x-x-x-x-|---------------------------------|
-|--x---x---|--x---x---|--x---x---|--x---x---|---------------------------------|
-|----------|----------|----------|----------|---------------------------------|
Woke up with a feelin', I found me lying on the

G2:
-|--0----0--|--0----0--|--0----0--|--0----0--|---------------------------------|
-|--0----1--|--0----1--|--0----1--|--0----1--|---------------------------------|
-|--0----0--|--0----0--|--0----0--|--0----0--|---------------------------------|
-|--0----0--|--0----0--|--0----0--|--0----0--|---------------------------------|
-|--2----2--|--2----2--|--2----2--|--2----2--|---------------------------------|
-|--3----3--|--3----3--|--3----3--|--3----3--|---------------------------------|

G1:
-|----------|----------|------------|--------------|---------------------------|
-|----x---x-|----x---x-|----x---x---|----x---x---x-|---------------------------|
-|--x-x-x-x-|--x-x-x-x-|--x-x-x-x-x-|--x-x-x-x-x-x-|---------------------------|
-|--x-x-x-x-|--x-x-x-x-|--x-x-x-x-x-|--x-x-x-x-x-x-|---------------------------|
-|--x---x---|--x---x---|--x---x---x-|--x---x---x---|---------------------------|
-|----------|----------|------------|--------------|---------------------------|
Floor, look up at the ceiling, I must be dreaming

G2:
-|--0----0--|--0----0--|--0-0--0-0--|--0-0--0-0-0--|---------------------------|
-|--0----1--|--0----1--|--0-0--1-1--|--0-0--0-0-1--|---------------------------|
-|--0----0--|--0----0--|--0-0--0-0--|--0-0--0-0-0--|---------------------------|
-|--2----2--|--2----2--|--2-2--2-2--|--2-2--2-2-2--|---------------------------|
-|--2----2--|--2----2--|--3-3--3-3--|--3-3--3-3-3--|---------------------------|
-|--0----0--|--0----0--|------------|--------------|---------------------------|

G1:
-|----------|----------|----------|----------|-2-2-------------|--------------|
-|----x---x-|----x---x-|----x---x-|----x---x-|-3-3-------------|-----x---x----|
-|--x-x-x-x-|--x-x-x-x-|--x-x-x-x-|--x-x-x-x-|-2-2-1-1-2-2-3-3-|-4-x-x-x-x-x--|
-|--x-x-x-x-|--x-x-x-x-|--x-x-x-x-|--x-x-x-x-|-0-0-2-2-3-3-4-4-|-5-x-x-x-x-x--|
-|--x---x---|--x---x---|--x---x---|--x---x---|-----2-2-3-3-4-4-|-5-x---x---x--|
-|----------|----------|----------|----------|-----0-0-1-1-2-2-|-3------------|
I get that feelin', Oh my lord I can't take no more

G2:
-|--0----0--|--0----0--|--0----0--|--0----0--|-2---------------|--------------|
-|--0----1--|--0----1--|--0----1--|--0----1--|-3---------------|--------------|
-|--0----0--|--0----0--|--0----0--|--0----0--|-2---1---2---3---|---------5-4--|
-|--0----0--|--0----0--|--0----0--|--0----0--|-0---2---3---4---|---5-3-0------|
-|--2----2--|--2----2--|--2----2--|--2----2--|-----2---3---4---|--------------|
-|--3----3--|--3----3--|--3----3--|--3----3--|-----0---1---2---|-3------------|

Repeat the verse then move onto the solo:

G1 Solo:(Same as Verse)

G2 Solo:
-|------------0--0-|---------3--1---------|-0--0--0--0--0--0-|---0--0---0--0--|
-|---0-3-1-0--1--3-|---3-1-0---0--0-3-0---|-0--3--1--0--1--3-|---3--0---1--0--|
-|-0----------0--0-|-0------------------0-|----------------0-|-0------0----0--|
-|-----------------|----------------------|------------------|----------------|
-|-----------------|----------------------|------------------|----------------|
-|-----------------|----------------------|------------------|----------------|

-|------------0--0-|---------3--1---------|------------------------------------|
-|---0-3-1-0--1--3-|---3-1-0--0--0-3-0----|------------------------------------|
-|-0----------0--0-|-0-----------------0--|------------------------------------|
-|-----------------|----------------------|------------------------------------|
-|-----------------|----------------------|------------------------------------|
-|-----------------|----------------------|------------------------------------|

Repeat the verse again, then do the outro:

G1 Outro:
-|-2-2-------------|------------------|-2-2---------------------|--------------|
-|-3-3-------------|------x---x---x---|-3-3---------------------|--------------|
-|-2-2-1-1-2-2-3-3-|-4--x-x-x-x-x-x-x-|-2-2--1-1--2-2--3--3--4--|--------------|
-|-0-0-2-2-3-3-4-4-|-5--x-x-x-x-x-x-x-|-0-0--2-2--3-3--4--4--5--|--------------|
-|-----2-2-3-3-4-4-|-5--x---x---x---x-|------2-2--3-3--4--4--5--|--------------|
-|-----0-0-1-1-2-2-|-3----------------|------0-0--1-1--2--2--3--|--------------|

G2:
-|-2---------------|------------------|-0-0--0-0--0-0--0--0--0--|--------------|
-|-3---------------|------------------|-x-x--x-x--x-x--x--x--x--|--------------|
-|-2---1---2---3---|-------------5--4-|-7-7--6-6--5-5--2--3--4--|--------------|
-|-0---2---3---4---|----5--3--0-------|-------------------------|--------------|
-|-----2---3---4---|------------------|-------------------------|--------------|
-|-----0---1---2---|-3----------------|-------------------------|--------------|





Comments


Popular Las tabs & chords
Feelin' Chords
My True Love Chords
Son Of A Gun Chords
Timeless Melody Chords
Was It Something I Said Chords
Way Out Chords
Who Knows Chords
There She Goes 3 Tabs
There She Goes Intro 1 Tabs
Feelin Ukulele


Song lyrics



↑ Back to top | Tablatures and chords are parodies/interpretations of the original songs. You may use it for private study, scholarship, research or language learning purposes only
© 2014 AZChords.com Contact us | Privacy policy | DMCA | Add/correct tabs | Request tabs | Top 50 tabs