» » »

Las, Was It Something I Said Chords (ver.1)

Artists:  A B C D E F G H I J K L M N O P Q R S T U V W X Y Z # 

Was It Something I Said Chords (ver.1)

Las Tabs
Rating:
0/5 (0 votes)
Was It Something I Said lessons Tabs too difficult? Try these video lessons and learn fast
                Artist-The La's
Song-Was it something I said?
Album-Unreleased
Writer-Lee Mavers


Tuned down half step

Pattern for intro/verse

G            Em           C
----------------------------------------|
-0-0-1-0-0-1--0-0-1-0-0-1--0-0-1-0-0-1--|
-0-0-0-0-0-0--0-0-0-0-0-0--0-0-0-0-0-0--|
-0-0-0-0-0-0--2-2-2-2-2-2--2-2-2-2-2-2--|
-2-2-2-2-2-2--2-2-2-2-2-2--3-3-3-3-3-3--|
-3-3-3-3-3-3--0-0-0-0-0-0---------------|


Verse  (3x)
G                  Em
Was it something I said?
C                 G
Something in your head
             Em
Get out your bed and
C                      G
Come fill your fishing net
            Em
Down to the bay
C            G
On my lonely way
             Em       C                   G
Put out your love and come fill a fishing net
             Em       C                   G
Put out your love and come fill a fishing net
             Em       C                   G
Put out your love and come fill a fishing net


Outro
G             Am           Em    (6x)
---------------------------------------------------|
-0-0-1-0-0-1--0-0-1-0-0-1--0-0-1-0-0-1-0-0-1-0-0-1-|
-0-0-0-0-0-0--2-2-2-2-2-2--0-0-0-0-0-0-0-0-0-0-0-0-|
-0-0-0-0-0-0--2-2-2-2-2-2--2-2-2-2-2-2-2-2-2-2-2-2-|
-2-2-2-2-2-2--0-0-0-0-0-0--2-2-2-2-2-2-2-2-2-2-2-2-|
-3-3-3-3-3-3---------------0-0-0-0-0-0-0-0-0-0-0-0-|

End on G7
            

comments powered by Disqus
↑ Back to top | Las Chords for Was It Something I Said. Lyrics for acoustic guitar and electric guitar. Tablatures and chords are parodies/interpretations of the original songs. You may use it for private study, scholarship, research or language learning purposes only