>
 >
Ashes Of The Wake 5

Ashes Of The Wake 5 Guitar Tabs

Lamb Of God - Ashes Of The Wake 5 chords, tabs, tablatures, lyrics

Guitar lessons | Add/correct | Request | Top 50 tabs Artists:  A B C D E F G H I J K L M N O P Q R S T U V W X Y Z 0-9

Ashes Of The Wake 5 Guitar Tabs – Lamb Of God

CD, Sheet music, Poster

Do you like Ashes Of The Wake 5? Share with your friends now
Bass TabsBass Tabs v2Bass Tabs v3Bass Tabs v4TabsTabs v2Tabs v3Tabs v4Tabs v5
e--------------------13-------------13----------|
b-----------------15----15--15b--15----15--15b--|
g-2b--2r-/-14v--------------13b------------12b--|
d-----------------------------------------------|
a-----------------------------------------------|
d-----------------------------------------------|

e------------------------------|
b------------------------------|
g-------9-9t10p9---------------|
d-11-12----------11-12brv------|
a------------------------------|
d------------------------------|
  *  *  *
e-----------------------------------81011--|
b------------------------------7810--------|
g-------------------5-7-8--578-------------|
d---------5-7-5-7-8------------------------|
a-5-7-8-9----------------------------------|
d------------------------------------------|
  * * * * * *

e---18-17-15-17-15-14-15-14-----14----------|
b----------------------------16----16--13---|
g-------------------------------------------|
d-------------------------------------------|
a-------------------------------------------|
d-------------------------------------------|
Pick 4x each

e-15b-15v--15br-13------17----------------------------------------|
b------------------15v-----15-------------------------------------|
g-----------------------------14v---14t15p14----------------------|
d--------------------------------------------16v--16-15-10-13v----|
a-----------------------------------------------------------------|
d-----------------------------------------------------------------|

e----------------------------------I------------------------------|
b-10-8-0-8-6-0-6-5-0---------------I------------------------------|
g---------------------7-9-0-9-10---I-7br-7v(sh)-------------------|
d----------------------------------I------------------------------|
a----------------------------------I------------------------------|
d----------------------------------I------------------------------|

non muted are pull offs or hammer ons

e----------------------------------------------------------------|
b-------------------------------------------12121312---13--------|
g-----------------------12----12131413----14---------14--13--12b-|
d-1112141214151214151415--1415---------15------------------------|
a----------------------------------------------------------------|
d----------------------------------------------------------------|


thats all





Comments


Popular Lamb Of God tabs & chords
Again We Rise 1 Bass Tabs
Descending Bass Tabs
Pariah Bass Tabs
Redneck Bass Tabs
One Gun Drum Tabs
11th Hour Tabs
Forgotten Lost Angels 2 Tabs
Ghost Walking Tabs
Reclamation 2 Tabs
Ruin 1 Tabs


Song lyrics



↑ Back to top | Tablatures and chords are parodies/interpretations of the original songs. You may use it for private study, scholarship, research or language learning purposes only
© 2014 AZChords.com Contact us | Privacy policy | DMCA | Add/correct tabs | Request tabs | Top 50 tabs