>
 >
Ashes Of The Wake 4

Ashes Of The Wake 4 Guitar Tabs

Lamb Of God - Ashes Of The Wake 4 chords, tabs, tablatures, lyrics

Guitar lessons | Add/correct | Request | Top 50 tabs Artists:  A B C D E F G H I J K L M N O P Q R S T U V W X Y Z 0-9

Ashes Of The Wake 4 Guitar Tabs – Lamb Of God

CD, Sheet music, Poster

Do you like Ashes Of The Wake 4? Share with your friends now
Bass TabsBass Tabs v2Bass Tabs v3Bass Tabs v4TabsTabs v2Tabs v3Tabs v4Tabs v5
Band: Lamb of God
Part: First two solos

Here's the first two solos for Ashes of the Wake. These are from the Lamb of God forum 
i dont take credit for making them. Please rate. Enjoy!


First Solo Ashes of the Wake [Instrumental]
                                                    |--|
      H.             E   S  S     H          E   E  S  E   E
E||---------------------------|-----------------------11------|
B||--12pb------------L--12-13-|--12~--------12--13--L-----13--|
G||---------------------------|-------------------------------|
D||---------------------------|-------------------------------|
A||---------------------------|-------------------------------|
D||---------------------------|-------------------------------|


   S  S  S  S  S  S  S  S S  S S  S  S S  S S
--11------------------------------------------|
-----13-12-13-12-10-12-10-8----8----10-8----8-|
----------------------------11---11------11---|
----------------------------------------------|
----------------------------------------------|
----------------------------------------------|


  S  S S S  S S S S  S Q     E.      S  S  Q       S  S  Q       S  S  E
---------------------------------|-------------------------------------------|
---------------------------------|-------------------------------------------|
--9---------------9-12-9~----L---|-----12-14br-------12-14br-------12-14br---|
----10-9-7----7-9----------------|--14------------14------------14-----------|
-----------10--------------------|-------------------------------------------|
---------------------------------|-------------------------------------------|


  E   S  S  E     S  S  Q.        S  S
---------------------------------12-10-|
---------------------------------------|
--L-----12-14br-----12-14b~------------|
-----14----------14--------------------|
---------------------------------------|
---------------------------------------|


                 |---3--|
   S  Q      S S S   S  S S S S S S S S
----------------------------------------|
--12-10br----8---8h-10p-8---8-----------|
---------------9----------9---9-7---7---|
----------------------------------9---9-|
----------------------------------------|
----------------------------------------|


  S  S S S  S S S E  Q     S  T   T  T   T
------------------------------------12h-15-|
-----------------------------12h-13--------|
--9------------------9~----L---------------|
----10-9-7----7----------------------------|
-----------10---0-L------------------------|
-------------------------------------------|


                        |---3---|
   S   S   S  S  S  S   S   S   S  T   T  T   T   S  S  S  T   T  S   S
--17p-15p-12----12----------------12h-15-17p-15p-12----12---------------|
-------------17----17p-15p-12h-17-------------------17----17p-15-12h-13-|
------------------------------------------------------------------------|
------------------------------------------------------------------------|
------------------------------------------------------------------------|
------------------------------------------------------------------------|


                        |---3--|
   S   T   T  S  T  T   S   S  S   S  S   Q.      E
------------------------------------------------------|
--12h-13p-11----13------------------------------------|
-------------12----12p-11h-12-11h-14-12h-12~------7\--|
------------------------------------------------------|
------------------------------------------------------|
------------------------------------------------------|


   S  S  S S  S  S  S  S  S S S S  S S S  S
--12p-7----7--------------------------------|
--------12---12p-7-12p-7--------------------|
-------------------------11-8-8-8-----------|
----------------------------------12-7-7-12-|
--------------------------------------------|
--------------------------------------------|


  S   S S  S S  S   T  T   T T   S  S   S  S   S  S   E
----------------------------------------------------------||
----------------------------------------------------------||
--9h-10-9----9---------------9h-11-12p-11p-9h-11p-9h-11~--||
----------12---12p-10p-9h-13------------------------------||
----------------------------------------------------------||
----------------------------------------------------------||

Second Solo [Skolnick] Ashes of the Wake [Instrumental]
                                             \1/                     \1/
      W                    H        Q.       E     H.           E    E
E||---------------------|-----------------------|-----------------------|
B||---L-----------------|------------------<>5--|--L------------L-------|
G||--12b----------------|-----------L-----------|-----------------------|
D||---------------------|-----------------------|-----------------------|
A||---------------------|-----------------------|------------------<>7--|
D||---------------------|-----------------------|-----------------------|


  W                     W                         H         E    E    E    E
-------------------|-------------------------|-------------------------------|
-------------------|-------------------------|-------------------------------|
-------------------|-------------------------|-------------------------------|
-------------------|-------------------------|-------------------------------|
--L----------------|-------------------------|-----------------------<>3-----|
-------------------|--<>5pbr~----------------|--<>5~--------L--<>3--<>5------|


    H.           E  S  S       H.           S S S S    H         H
--------------------------|-------------------------|------------------------|
--------------------------|-------------------------|------------------------|
--------------------------|-------------------------|------------------------|
--<>4------------L--------|---------------------3-5-|--7~--------6~----------|
--------------------3p-0h-|--<>3------------L-5-----|------------------------|
--------------------------|-------------------------|------------------------|

  E  S  S  S S  S S S  S  S S  S  S S  S
-----------------------------------------|
-----------------------------------------|
-----------------------------------------|
--L--5h-6p-5-8p-5---5h-6p-5---------5h-7-|
------------------8---------8p-5h-8------|
-----------------------------------------|


  S S  S S S  S S  S S S  S  S S S  S S    Q      H         S  S S S
----------------------------------------|----------------------------|
----------------------------------------|----------------------------|
----------------5h-7-5---------5--------|--------------------------5-|
--5--------5h-6--------6p-5h-6---6p-5---|--5---------------------6---|
----8p-5-8----------------------------7-|-------<>7~--------5h-8-----|
----------------------------------------|----------------------------|


  W                    E   S S   Q    E    E    Q
--------------------|---------------------------------|
--------------------|---------------------------------|
--7~----------------|--L-------<>8----L--<>8--<>7~----|
--------------------|-----10-7------------------------|
--------------------|---------------------------------|
--------------------|---------------------------------|


  E   Q    E    Q    E   E     E   E   H.                S  Q.     H        S
----------------------------|-------------------------|----------------------|
----------------------------|-------------------------|----------------------|
------8--------11-------12--|--L------12br------------|--7/-9------L---------|L
--7/-------7/--------7------|-----12------------------|----------------------|
----------------------------|-------------------------|----------------------|
----------------------------|-------------------------|----------------------|

  W                   W                   W
-------------------|-------------------|-------------------|-------|-------|
-------------------|-------------------|-------------------|-------|-------|
--L----------------|--L----------------|--L----------------|-------|-------|
-------------------|-------------------|-------------------|-------|-------|
-------------------|-------------------|-------------------|-------|-------|
-------------------|-------------------|-------------------|-------|-------|

                                                          |--3--|
                  H         H            E  S S  S S  S S E  E  E  Q
-------|-------|----------------------|----------------------4--7--L----|
-------|-------|----------------------|-------------------6-------------|
-------|-------|--2~--------1~--------|--L--0-1p-0-3p-0-----------------|
-------|-------|----------------------|-----------------3---------------|
-------|-------|----------------------|---------------------------------|
-------|-------|----------------------|---------------------------------|


  S   S  Q     S   S  Q     S   S  E     E  S   S  Q      E   Q.
--------10~----------12~----------13--|--L--------12~--------10~------|
--------------------------------------|-------------------------------|
--9/-10--------9/-10--------9/-10-----|-----9/-10--------10-----------|
--------------------------------------|-------------------------------|
--------------------------------------|-------------------------------|
--------------------------------------|-------------------------------|


               |--3--|                          |--3--|
   S  S  S  S  S  S  S  S  S  S  S  S  S  S  S  S  S  S
-----------12-------------------12-13-16-17-13-12-14-16-|
--12-13-15----15-13-12-12-12-13-------------------------|
--------------------------------------------------------|
--------------------------------------------------------|
--------------------------------------------------------|
--------------------------------------------------------|


   S  S  S  S  T  T  T  S  S  S  S  S.S S S S S
--12--------------------------------------------|
-----15-13-15-13-12----------12-----------------|
--------------------14-13-14----14-13-L-L-L-L-L-|
------------------------------------------------|
------------------------------------------------|
------------------------------------------------|


  |---3---|   |---3---|   |---3---|
  E   E   E   E   E   E   E   E   E   S  S  S  S
-------------------------------------------------|
-------------15--17----------15--17--------15-17-|
--L--13--14----------13--14----------14-15-------|
-------------------------------------------------|
-------------------------------------------------|
-------------------------------------------------|


   |---3---|   |---3---|   |---3---|
   E   E   E   E   E   E   E   E   E   S  S  S  S
---------------------------------------------------|
----------16--18----------17--20---------18----18b-|
--15--17----------16--17----------17--18----20-----|
---------------------------------------------------|
---------------------------------------------------|
---------------------------------------------------|


                                |---3---|   |--3--|
   H          T   Q    E  S.    E   E   E   S  S  S  H          E
-----------------------------|-------------14-15-17-17b~--------L--|
--18b--------13h-15----L--L--|--L--13--15--------------------------|
-----------------------------|-------------------------------------|
-----------------------------|-------------------------------------|
-----------------------------|-------------------------------------|
-----------------------------|-------------------------------------|


   |---3--|  |---3--|             |--3--|
   E   E  E  E  E   E   E   S  S  S  S  S  S  S
--17~--L--L--L--L--14--15--17-15-17-15-14-14-14-|
------------------------------------------------|
------------------------------------------------|
------------------------------------------------|
------------------------------------------------|
------------------------------------------------|


         |--3--|
   S  S  S  S  S  S  T  T  T  T  T  T  S  S  S  S  S  S  E
------------------------------------------------------------|
--16-15-13-15-16-15-13-12----11-------11-10-------11-10-----|
--------------------------14----13-12-------13-12-------12--|
------------------------------------------------------------|
------------------------------------------------------------|
------------------------------------------------------------|


    |-----3-----|     |------3-----|        |----3----|
    Q     Q     Q     Q      Q     Q        Q    Q    Q    H
----------------------------------------|----------------------------|
--/15----13----13----13\----10----10----|--10----8----8----8~--------|
----x-----x-----x-----x------x-----x----|----------------------------|
--/12----10----10----10\-----7-----7----|----------------------------|
----------------------------------------|----------------------------|
----------------------------------------|----------------------------|


   |---3---|   |---3---|  |--3--|  |--3--|
   E   E   E   E   E   E  E  E  E  E  E  E
--15------13------10------8-----------------|
------15------13------10-----9--8-----8-----|
-----------------------------------8-----8--|
--------------------------------------------|
--------------------------------------------|
--------------------------------------------|


  |--3--|  |--3--|  |--3--|  |--3--|
  E  E  E  E  E  E  E  E  E  E  E  E     W
--------------------------------------|--------------------|
--7-----6-----5-----4-----3-----3-----|--3~----------------|
-----8-----7-----6-----5-----3-----3--|--------------------|
--------------------------------------|--------------------|
--------------------------------------|--------------------|
--------------------------------------|--------------------|


  W
-------------------||
--L----------------||
-------------------||
-------------------||
-------------------||
-------------------||





Comments


Popular Lamb Of God tabs & chords
An Extra Nail For Your Coffin Bass Tabs
Broken Hands Bass Tabs
Confessional 2 Bass Tabs
The Subtle Arts Of Murder And Persusian Bass Tabs
As The Palaces Burn Tabs
Ashes Of The Wake 5 Tabs
Black Dahlia Tabs
Forgotten Lost Angels 2 Tabs
Requiem 1 Tabs
Set To Fail 3 Tabs


Song lyrics



↑ Back to top | Tablatures and chords are parodies/interpretations of the original songs. You may use it for private study, scholarship, research or language learning purposes only
© 2014 AZChords.com Contact us | Privacy policy | DMCA | Add/correct tabs | Request tabs | Top 50 tabs