» » »

Lamb Of God, Ashes Of The Wake Bass tabs (ver.1)

Artists:  A B C D E F G H I J K L M N O P Q R S T U V W X Y Z # 

Ashes Of The Wake Bass tabs (ver.1)

Lamb Of God Tabs
 Rating:
4/5 (4 votes)
Ashes Of The Wake lessons Tabs too difficult? Try these video lessons and learn fast
                INTRO
G ------------------------------------------|
D -------2-3-2-0-------1----0---------------|
A ---4-5----------------3-2---1-0-------6-6-|
D 0-0------------0-000------------0-000-----|

G ------------------------------------------------|
D --------2-3-2-0-------1-----0-----3-2-----------|
A ----4-5-----------------3-2---1-0-----4-4p5p4-0-|
D 0-0-------------0-000---------------------------|

G --------------------------------------------|
D --------2-3-2-0-------1-----0---------------|
A ----4-5-----------------3-2---1-0-------6-6-|
D 0-0-------------0-000-------------0-000-----|


         FIRST ENDING
         G -------------------------------------------|
         D --------2-3-2-0----------------------------|
         A ----4-5--------------1-----0---------------|
         D 0-0-------------0-00---4-3---3-2-0-000-1-1-|

         SECOND ENDING
         G --------------------------------------------|
         D --------2-3-2-0------3-2--------------------|
         A ----4-5------------------4-4-1--------------|
         D 0-0-------------0-00-----------5-4-1-3--3-0-|

RIFF 1
G ------------------------------------------------------|
D ------------------------------------------3-2---------|
A --------------------------------------1-0-----4-5p6p5-|
D 0-000-0-0-0-0-000-0-0-0-0-000-0-0-0-0-----------------|

G ----------------------------------------|
D ----------------------------------------|
A ----------------------------------5p6p5-|
D 0-0-0-0-0-0-0-0-0-0-0-6-6-0-0-3-3-------|

G ------------------------------------------------------|
D ------------------------------------------3-2---------|
A --------------------------------------1-0-----4-5p6p5-|
D 0-000-0-0-0-0-000-0-0-0-0-000-0-0-0-0-----------------|

G ----------------------------------------|
D ----------------------------------------|
A ----------------------------------5p6p5-|
D 0-0-0-0-0-0-0-0-0-0-0-2-2-0-0-3-3-------|

G ------------------------------------------------------|
D ------------------------------------------3-2---------|
A --------------------------------------1-0-----4-5p6p5-|
D 0-000-0-0-0-0-000-0-0-0-0-000-0-0-0-0-----------------|

G ----------------------------------------|
D ----------------------------------------|
A ----------------------------------5p6p5-|
D 0-0-0-0-0-0-0-0-0-0-0-6-6-0-0-3-3-------|

G ------------------------------------------------------|
D ------------------------------------------3-2---------|
A --------------------------------------1-0-----4-5p6p5-|
D 0-000-0-0-0-0-000-0-0-0-0-000-0-0-0-0-----------------|

G ----------------------------------|
D ----------------------------------|
A ----------------------------------|
D 0-0-0-0-0-0-0-0-0-0-0-2-2-0-0-3-3-|

BRIDGE 1
G --------------------|
D --------------------|
A --------------------|
D 0-666-555-333-6-3-5-|

RIFF 2
G -------------------------------------------|
D -------------------------------------------|
A ---------------------4-4---5-5-------------|
D 0000-0000-0000-1p0-1-----0-----0-6-6-0-3-3-|

G --------------------------------------------------|
D --------------------------------------------------|
A ---------------------4-4---5-5--------------------|
D 0000-0000-0000-1p0-1-----0-----0-6-6-0-3-3-0-1--1-|

G -------------------------------------------|
D -------------------------------------------|
A ---------------------4-4---5-5-------------|
D 0000-0000-0000-1p0-1-----0-----0-6-6-0-3-3-|

G -------------------------------------------------------|
D -------------------------------------------------------|
A ---------------------4-4---5-5-------------------------|
D 0000-0000-0000-1p0-1-----0-----0-6-6-0-8-8-------8/1-3-|

SOLO 1(Mark Morton)
G ------------------------------------------|
D ------------------------------------------|
A ----------------------------------1-------|  X3
D 2222222222222222-333333333-0000-0---2-4---|

SOLO BRIDGE 1
G -------------------|
D -------------------|
A -------------------|
D 00-2p0-2--00-2p0-2-|

SOLO 2 (Alex Skolnick)
G -----------------------------------------------|
D -----------------------------------------------|
A -----------------------------------------------|
D 00-2p0-2---00-2p0-2---00-2p0-2---00-1-2-00-1-3-|

G -----------------------------------------------|
D -----------------------------------------------|
A -----------------------------------------------|
D 00-2p0-2---00-2p0-2---00-2p0-2---00-1-6-00-1-4-|

G -----------------------------------------------|
D -----------------------------------------------|
A -----------------------------------------------|
D 00-2p0-2---00-2p0-2---00-2p0-2---00-1-2-00-1-3-|

SECOND TIME
G ------------------------------------------|
D ------------------------------------------|
A ----------------------------------1-------|  X2
D 2222222222222222-333333333-0000-0---2-4---|

G -----------------------------------------------|
D -----------------------------------------------|
A -----------------------------------------------|
D 00-2p0-2---00-2p0-2---00-2p0-2---00-1-2-00-1-3-|

G -----------------------------------------------|
D -----------------------------------------------|
A -----------------------------------------------|
D 00-2p0-2---00-2p0-2---00-2p0-2---00-1-6-00-1-4-|

G -----------------------------------------------|
D -----------------------------------------------|
A -----------------------------------------------|
D 00-2p0-2---00-2p0-2---00-2p0-2---00-1-2-00-1-3-|

G -----------------------------------------------|
D -----------------------------------------------|
A -----------------------------------------------|
D 00-2p0-2---00-2p0-2---00-2p0-2---00-1-2-00-1-3-|

SOLO OUTRO BRIDGE 1
G ------------------|
D ------------------|
A ------------------|
D 6-3-6-7-6-3-0~~~~-|


RIFF 2
G ------------------------------------------------|
D ------------------------------------------------|
A --------------------------------------6-5-6-5-3-|
D -----------000-0-0--0-0-0-0-0-0-0-0-0-----------|

G -----------------------------------------------|
D -----------------------------------------------|
A --------------------------------------5/6--5/3-|
D -----------000-0-0--0-0-0-0-0-0-0-0-0----------|

G ------------------------------------------------|
D ------------------------------------------------|
A --------------------------------------6-5-6-5-3-|
D -----------000-0-0--0-0-0-0-0-0-0-0-0-----------|

G -----------------------------------------|
D -----------------------------------------|
A -----------------------------6b6-----3b3-|
D -----------000-0-0-0-0-0-0-0-----0-0-----|
                             (very slight bend)

RIFF 3
G ------------------------------------------------|
D ------------------------------------------------|
A --------------------------------------6-5-6-5-3-|
D -----------000-0-0--0-0-0-0-0-0-0-0-0-----------|

G -----------------------------------------------|
D -----------------------------------------------|
A --------------------------------------5/6--5/3-|
D -----------000-0-0--0-0-0-0-0-0-0-0-0----------|

G ------------------------------------------------|
D ------------------------------------------------|
A --------------------------------------6-5-6-5-3-|
D -----------000-0-0--0-0-0-0-0-0-0-0-0-----------|

G --------------------------------------------------------|
D --------------------------------------------------------|
A -----------------------------6b6-----3b3----------------|
D -----------000-0-0-0-0-0-0-0-----0-0-----0-00-0-8-7-4-0-|

SOLO 3(Chris Poland)
G O------------------------------------------------------------------------|
D  ------------------------------------------------------------------------|
A  ------------------------------------------------------------------------|
D O 0-0-0-0-0-0-0-0-0-0-0-0-0-0-0-0-0-0-0-0-0-0-0-0-6-6-6-6-6-6-6-6-6-6-6--|

G ----------------------|O
D ----------------------|   X2
A ----------------------|
D 3p0-3-1-1-1-8-7-4-----|O

GO ------------------------------------------------------------------------|
D -------------------------------------------------------------------------|
A -------------------------------------------------------------------------|
DO 0-0-0-0-0-0-0-0-0-0-0-0-0-0-0-0-0-0-0-0-0-0-0-0-6-6-6-6-6-6-3-3-3-3-3-3-|

G ------------------------------------|O
D ------------------------------------|    X2
A ------------------------------------|
D 3-3-3-3-3-3--1p0-1-0-0-0-8-7-4------|O

RIFF 2
RIFF 3/SOLO 4(Willie Adler)

OUTRO
G ----------------------|
D ----------------------|  X3
A ----------------------|
D -0-2p0-2--0-0-0-8-7-4-|

G ----------------------------------------2~~~~~~~~~~~~~~~~~~~~~~~~~~~~~|
D -------------------------------0~~~~~~~~~~~~~~~~~~~~~~~~~~~~~~~~~~~~~~|
A ---------------0~~~~~~~~~~~~~~~~~~~~~~~~~~~~~~~~~~~~~~~~~~~~~~~~~~~~~~|
D 3----1----0----0~~~~~~~~~~~~~~~~~~~~~~~~~~~~~~~~~~~~~~~~~~~~~~~~~~~~~~|
                                 (add notes by strumming after double stop)
            
Submit corrections

comments powered by Disqus
↑ Back to top | Lamb Of God Bass for Ashes Of The Wake. Lyrics for acoustic guitar and electric guitar. Tablatures and chords are parodies/interpretations of the original songs. You may use it for private study, scholarship, research or language learning purposes only