>
 >
11th Hour 1

11th Hour 1 Guitar Tabs

Lamb Of God - 11th Hour 1 chords, tabs, tablatures, lyrics

Guitar lessons | Add/correct | Request | Top 50 tabs Artists:  A B C D E F G H I J K L M N O P Q R S T U V W X Y Z 0-9

11th Hour 1 Guitar Tabs – Lamb Of God

CD, Sheet music, Poster

Do you like 11th Hour 1? Share with your friends now
Bass TabsTabsTabs v2Tabs v3Tabs v4Tabs v5Tabs v6Tabs v7
Lamb of God - 11th Hour

Intro

Time Signature

12
 8  

e|-------------------------------|
B|-------------------------------|
G|-------------------------------|
D|-------------------------------| x3
A|-12-------13-12----------------|
D|----13-12-------13-000-0-0-0-0-|
PM                   ... . . . .

e|-------------------------------------|
B|-------------------------------------|
G|-------------------------------------|
D|-------------------------------------|
A|-12-------13-12----12-11----11-10----|
D|----13-12-------13-------12-------11-|

Bridge to verse

e|-------------------------|
B|-------------------------|
G|-------------------------|
D|-------------------8---7-|
A|-8-7-6-------5-----6---5-|
D|-------8-7-6---6-5---0---|
PM . . . . . .         . 

Verse
Riff 1
e|-------------------------|-------------------------|
B|-------------------------|-------------------------|
G|-------------------------|-------------------------|
D|-------------------------|-------------------8---7-| x4
A|-0-0-0-1-0-0-0-0-0-1-0-4-|-0-0-0-1-0-0-5-----6---5-|
D|-0-0-0-1-0-0-0-0-0-1-0-4-|-0-0-0-1-0-0---6-5---0---|
PM . . .     . . . .         . . .       . . .   .  

e|------------------------|-----------------------|
B|------------------------|-----------------------|
G|------------------------|-----------------------|
D|------------------------|-----------------------|
A|------------------------|--------------3s7--7s8-|
D|-4-444-4-4-4--444-4-4-4-|-3-333-3-3-3--3s7--7s7-|
PM . ... . . .  ... . . .   . ... . . . 

Riff 2
e|-----------------------------------------|---------------------------------|
B|-------------6--------------6--------6-6-|-------------7---------------7---|
G|-------------9--------------9--------9-9-|-------------10--------------10--|
D|-------------0--------------0--------0-0-|-------------0---------------0---|
A|-----------------------------------------|---------------------------------|
D|-0-000-0-0-0----0-000-0-0-0----0-000-----|-8-888-8-8-8-----8-888-8-8-8-----|
PM . ... . . .    . ... . . .    . ...       . ... . . .     . ... . .  

There are two endings for riff 2
Ending 1
e|------------------|
B|------------------|
G|-14-13----13*-----|
D|-------15------15-|
A|------------------|
D|------------------|

Ending 2
e|--------------|
B|--------------|
G|--------------|
D|-7------------|
A|---10-8---8---|
D|--------7---7-|

Chorus
e|---------------------------------------|----------------------------------------|
B|---------------------------------------|----------------------------------------|
G|---------------------------------------|----------------------------------------|
D|---------------------------------------|----------------------------------------|
A|-------------7h8--8-------------7h8--8-|------------7h8--8-------------7h8--8p7-|
D|-0-000-0-0-0--------0-000-0-0-0--------|-8-888-8-8-8--------5-555-5-5-5---------|

Harmony riff (played on second time)
e|---------------------------------------|----------------------------------------|
B|---------------------------------------|----------------------------------------|
G|---------------------------------------|----------------------------------------|
D|-------------5h7--7------------5h7--7--|------------7h8--8-------------7h8--8p7-|
A|---------------------------------------|----------------------------------------|
D|-0-000-0-0-0--------0-000-0-0-0--------|-8-888-8-8-8--------5-555-5-5-5---------|

Time signature to 
4
4

I think this is the transition
e|--------------------------|
B|--------------------------|
G|--------------------------|
D|-7------------------5-----|
A|---10-8---8---8-7-5---8-7-|
D|--------7---7-------------|

e|----------------------------------|-----------------------------------|
B|----------------------------------|-----------------------------------|
G|----------------------------------|-----------------------------------|
D|---------7-------------10-----8-7-|---------7-------------------------|
A|-----8-------10-------------------|-----8-------10--------------------|
D|-000---0---0----0--0-8----8-7-----|-000---0---0----0--0-3-5b--3-3s10b-|
PM ...   .   .    .  . .    . .       ...   .   .    .  . .     . .

e|----------------------------------|--------------------------------|
B|----------------------------------|--------------------------------|
G|----------------------------------|--------------------------------|
D|----------------------------------|----------8---7-----------------|
A|-----7---10---8---7---8---7h8p7---|-5----8------------3-5b--3-3-6b-|
D|-888---8----8---8---8---8-------8-|-5--5---5---5---5--3-5b--3-3-6b-|

e|--------------------|
B|--------------------|
G|--------------------|
D|--------------------|
A|-000--000--000-00-0-|
D|-000--000--000-00-0-|
PM all

do the above riff a few times until

e|----------|
B|-------5--|
G|-------8--|
D|----------|
A|-0-0-0----|
D|-0-0-0----|
   . . .

Mosh part
e|-----------------|
B|------5-------5--|
G|------8-------8--|
D|-----------------| repeat as necessary
A|-0000----0000----|
D|-0000----0000----|
PM ....    ....

e|----------------------------------------|
B|----------------------------------------|
G|----------------------------------------|
D|----------------------------------------| repeat as necessary
A|-0-0-0-0-0-0-0-0-0-0-0-0-3-5b--3-3-6b-6-|
D|-0-0-0-0-0-0-0-0-0-0-0-0-3-5b--3-3-6b-6-|

e|---------------------------------------------------------------|
B|------5-------5-------5-------5-------5-------5----------------|
G|------8-------8-------8-------8-------8-------8----------------|
D|---------------------------------------------------------------|
A|-------------------------------------------------3-5b--3-3-6b--|
D|-0000----0000----0000----0000----0000----0000----3-5b--3-3-6b--|
PM ....    ....    ....    ....    ....    ....

End on
e|----------------------------------|
B|----------------------------------|
G|----------------------------------|
D|---------7-------------10-----8-7-|
A|-----8-------10-------------------|
D|-000---0---0----0--0-8----8-8-----|
PM ...   .   .    .  . .    . .





Comments


Popular Lamb Of God tabs & chords
A Devil In God's Country Bass Tabs
Again We Rise Bass Tabs
Ashes Of The Wake 2 Bass Tabs
Black Label 6 Bass Tabs
An Extra Nail For Your Coffin Tabs
Barbarosa Tabs
Black Dahlia Tabs
Desolation Tabs
Omerrta Remix Tabs
Redneck 2 Tabs


Song lyrics



↑ Back to top | Tablatures and chords are parodies/interpretations of the original songs. You may use it for private study, scholarship, research or language learning purposes only
© 2014 AZChords.com Contact us | Privacy policy | DMCA | Add/correct tabs | Request tabs | Top 50 tabs