» » »

Lamb Of God, 11th Hour Tabs (ver.3)

Artists:  A B C D E F G H I J K L M N O P Q R S T U V W X Y Z # 

11th Hour Tabs (ver.3)

Lamb Of God Tabs
 Rating:
4/5 (11 votes)
11th Hour lessons Tabs too difficult? Try these video lessons and learn fast
                11th Hour
Lamb of God
As the Palaces Burn

No one seems to get a perfect intro and middle part to 11th hour
shame. 
Im playing this higher on the fret board but most people play on the D string from the 12th fret. 
Biggest Headbanger of a song ever?

e|----------------------------------------------------------------------------|
B|----------------------------------------------------------------------------|
G|----------------------------------------------------------------------------|
D|--7-----8-7----------------7-----8-7----------------7-----8-7---------------|
A|----6-5-----6----------------6-5-----6----------------6-5-----6-------------|
D|---------------0-0-000-0-0--------------0-0-000-0-0-------------0-0-000-0-0-|

|----------------------------|
|----------------------------|
|----------------------------|
|--7-----8-7----7p6---6p5----|
|----6-5-----6------5-----4--|
|----------------------------|

|----------------------------------------------------------------------------|
|----------------------------------------------------------------------------|
|----------------------------------------------------------------------------|
|--7-----8-7----------------7-----8-7----------------7-----8-7---------------|
|----6-5-----6----------------6-5-----6----------------6-5-----6-------------|
|---------------0-0-000-0-0--------------0-0-000-0-0-------------0-0-000-0-0-|

|-----------------------------------------------------|
|-----------------------------------------------------|
|-----------------------------------------------------|
|--7-----8-7----7p6---6p5-----------------------8--7--|
|----6-5-----6------5-----4--7-6-5-------8-5-6--6--5--|
|----------------------------------7-6-5--------------|

|-----------------------------------------------------|
|-----------------------------------------------------|
|-----------------------------------------------------|
|--------------------------------------------8--7-----|x4
|-0-0-0-1-0-0-0-0-0-1-0-4-1-0-0-1-0-0-0-0-0--6--5-----|
|-0-0-0-1-0-0-0-0-0-1-0-4-1-0-0-1-0-0-0-0-0-----------|

|-------------------------------------------|
|-------------------------------------------|
|-------------------------------------------|
|-------------------------------------------|
|-4-4-4-4-4-4--4-4-4-4-4--3-3-3-3-3-3--3/7--|
|-4-4-4-4-4-4--4-4-4-4-4--3-3-3-3-3-3--3/7--|

|-----------------------------------------------------|
|-----------------------------------------------------|
|-----------------------------------------------------|
|--------------------------------------------8--7-----|x4
|-0-0-0-1-0-0-0-0-0-1-0-4-1-0-0-1-0-0-0-0-0--6--5-----|
|-0-0-0-1-0-0-0-0-0-1-0-4-1-0-0-1-0-0-0-0-0-----------|

|-------------------------------------------|
|-------------------------------------------|
|-------------------------------------------|
|-------------------------------------------|
|-4-4-4-4-4-4--4-4-4-4-4--3-3-3-3-3-3--3/7--|
|-4-4-4-4-4-4--4-4-4-4-4--3-3-3-3-3-3--3/7--|

|--------------0-------------0-------0-----|
|--------------5-------------5-------5-----|
|--------------7-------------7-------7-----|
|------------------------------------------|
|-0-----0-0-0---0-0-0--0-0-0---0-0-0-------|
|-0-000-0-0-0---0-0-0--0-0-0---0-0-0-------|

|-------------0--------------0----------------|
|-------------6--------------6---6p5----8p5---|
|-------------7--------------7-------5------5-|
|---------------------------------------------|
|-7-777-7-7-7---7-7-7--7-7-7------------------|
|-7-777-7-7-7---7-7-7--7-7-7------------------|

|--------------0-------------0-------0-----|
|--------------5-------------5-------5-----|
|--------------7-------------7-------7-----|
|------------------------------------------|
|-0-----0-0-0---0-0-0--0-0-0---0-0-0-------|
|-0-000-0-0-0---0-0-0--0-0-0---0-0-0-------|

|-------------0--------------0----------------|
|-------------6--------------6----------------|
|-------------7--------------7----------------|
|---------------------------------------------|
|-7-777-7-7-7---7-7-7--7-7-7---7-6-5----------|
|-7-777-7-7-7---7-7-7--7-7-7---------7-6-5----|

|--------------0-------------0-------0-----|
|--------------5-------------5-------5-----|
|--------------7-------------7-------7-----|
|------------------------------------------|
|-0-----0-0-0---0-0-0--0-0-0---0-0-0-------|
|-0-000-0-0-0---0-0-0--0-0-0---0-0-0-------|

|-------------0--------------0----------------|
|-------------6--------------6---6p5----8p5---|
|-------------7--------------7-------5------5-|
|---------------------------------------------|
|-7-777-7-7-7---7-7-7--7-7-7------------------|
|-7-777-7-7-7---7-7-7--7-7-7------------------|

|--------------0-------------0-------0-----|
|--------------5-------------5-------5-----|
|--------------7-------------7-------7-----|
|------------------------------------------|
|-0-----0-0-0---0-0-0--0-0-0---0-0-0-------|
|-0-000-0-0-0---0-0-0--0-0-0---0-0-0-------|

|-------------0--------------0----------------|
|-------------6--------------6----------------|
|-------------7--------------7----------------|
|---------------------------------------------|
|-7-777-7-7-7---7-7-7--7-7-7---7-6-5----------|
|-7-777-7-7-7---7-7-7--7-7-7---------7-6-5----|

|---------------------------------------------------------------------|
|---------------------------------------------------------------------|
|---------------------------------------------------------------------|
|---------------------------------------------------------------------|x4
|-0-0-0-0-0-0-8~-0-0-0-0-0-0--8~-0-0-0-0-0-0--8~-0-0-0-0-0-0--8~-8p7--|
|-0-0-0-0-0-0----0-0-0-0-0-0-----0-0-0-0-0-0-----0-0-0-0-0-0----------|

|--------------0-------------0-------0-----|
|--------------5-------------5-------5-----|
|--------------7-------------7-------7-----|
|------------------------------------------|
|-0-----0-0-0---0-0-0--0-0-0---0-0-0-------|
|-0-000-0-0-0---0-0-0--0-0-0---0-0-0-------|

|-------------0--------------0----------------|
|-------------6--------------6---6p5----8p5---|
|-------------7--------------7-------5------5-|
|---------------------------------------------|
|-7-777-7-7-7---7-7-7--7-7-7------------------|
|-7-777-7-7-7---7-7-7--7-7-7------------------|

|--------------0-------------0-------0-----|
|--------------5-------------5-------5-----|
|--------------7-------------7-------7-----|
|------------------------------------------|
|-0-----0-0-0---0-0-0--0-0-0---0-0-0-------|
|-0-000-0-0-0---0-0-0--0-0-0---0-0-0-------|

|-------------0--------------0----------------|
|-------------6--------------6----------------|
|-------------7--------------7----------------|
|---------------------------------------------|
|-7-777-7-7-7---7-7-7--7-7-7---7-6-5----------|
|-7-777-7-7-7---7-7-7--7-7-7---------7-6-5----|

|--------------0-------------0-------0-----|
|--------------5-------------5-------5-----|
|--------------7-------------7-------7-----|
|------------------------------------------|
|-0-----0-0-0---0-0-0--0-0-0---0-0-0-------|
|-0-000-0-0-0---0-0-0--0-0-0---0-0-0-------|

|-------------0--------------0----------------|
|-------------6--------------6---6p5----8p5---|
|-------------7--------------7-------5------5-|
|---------------------------------------------|
|-7-777-7-7-7---7-7-7--7-7-7------------------|
|-7-777-7-7-7---7-7-7--7-7-7------------------|

|--------------0-------------0-------0-----|
|--------------5-------------5-------5-----|
|--------------7-------------7-------7-----|
|------------------------------------------|
|-0-----0-0-0---0-0-0--0-0-0---0-0-0-------|
|-0-000-0-0-0---0-0-0--0-0-0---0-0-0-------|

|-------------0--------------0----------------|
|-------------6--------------6----------------|
|-------------7--------------7----------------|
|---------------------------------------------|
|-7-777-7-7-7---7-7-7--7-7-7---7-6-5----------|
|-7-777-7-7-7---7-7-7--7-7-7---------7-6-5----|

Everyone else has got it covered from here
hope you enjoyed
            
Submit corrections

comments powered by Disqus
↑ Back to top | Lamb Of God Tabs for 11th Hour. Lyrics for acoustic guitar and electric guitar. Tablatures and chords are parodies/interpretations of the original songs. You may use it for private study, scholarship, research or language learning purposes only